Oops, an error
Loading. Please wait.

Sangre De Tu Sangre Tab

by QBO
186 views 1 this week
no commentswrite comment
1 2 3 4 5
please rate
add to favorites
launch autoscroll
font size
0
reset
how to read this tab
guitar tuner
Tab Pro tools
  • play this tab
  • loop segment
  • change instrument
  • show fretboard
  • metronome
Autoscroll
slow
fast
+/-
esc
set tempo
stop
Contributor
Difficulty
novice
Intro:
--------------------------------------------------------------|
--------------------------------------------------------------|
--------------------------------------------------------------|
--------4-4-0-4-4-0-------------------------------------------|
--------4-4-0-4-4-0--------2-2-2-3-3-3------------------------|
--------2-2-0-2-2-0-------------------------------------------|

--------------------------------------------------------------|
--------------------------------------------------------------|
--------------------------------------------------------------|
--------4-4-4-4-----------------------------------------------|
--------4-4-4-4-----------------------------------------------|
--------2-2-2-2-----------------------------------------------|

En mi memoria..................
--------------------------------------------------------------|
--------------------------------------------------------------|
--------------------------------------------------------------|
--------------------------------------------------------------|
--------------------------------------------------------------|
--------------------------------------------------------------|

Y tu a un lado....................
---------------------------------------------------------------|
---------------------------------------------------------------|
------------------5-------------------------------5------------|
2-----------------5-------------2-----------------5------------|
2-----------------3-------------2-----------------3------------|
0-------------------------------0------------------------------|

No digas que no me recuerdas mas.............
---------------------------------------------------------------|
---------------------------------------------------------------|
----------------7-7-7-7-----------5----------------------------|
2---------------7-7-7-7-----------5----------------------------|
2---------------5-5-5-5-----------3----------------------------|
0--------------------------------------------------------------|

Recuerda bien..........................
---------------------------------------------------------------|
---------------------------------------------------------------|
---------5--------------------7-----5--------------------------|
2--------5---------2----------7-----5--------------------------|
2--------3---------2----------5-----3--------------------------|
0------------------0-------------------------------------------|


---------------------------------------------------------------------------------|
---------------------------------------------------------------------------------|
---------------------------------------------------------------------------------|
---------------------------------------------------------------------------------|
-------------------------2-2-3-3-3-------------------2-2-(3)-(3)-(4)-(4)-(5)-----|
--------2-2-0-2-2-0-------------------2-2-0-2-2-0--------------------------------|

Solitario.........................
--------------------------------------------------------------|
--------------------------------------------------------------|
--------------------------------------------------------------|
--------------------------------------------------------------|
--------------------------------------------------------------|
--------------------------------------------------------------|

Que importa, es pasado..................
---------------------------------------------------------------|
---------------------------------------------------------------|
------------------5-------------------------------5------------|
2-----------------5-------------2-----------------5------------|
2-----------------3-------------2-----------------3------------|
0-------------------------------0------------------------------|

No digas que no me recuerdas mas.............
---------------------------------------------------------------|
---------------------------------------------------------------|
----------------7-7-7-7-----------5----------------------------|
2---------------7-7-7-7-----------5----------------------------|
2---------------5-5-5-5-----------3----------------------------|
0--------------------------------------------------------------|

Recuerda bien..............
---------------------------------------------------------------|
---------------------------------------------------------------|
---------5--------------------7-----5--------------------------|
2--------5---------2----------7-----5--------------------------|
2--------3---------2----------5-----3--------------------------|
0------------------0-------------------------------------------|

---------------------------------------------------------------|
---------------------------------------------------------------|
-------------------4~~~~-------4~~~~---------------------------|
---------------------------------------------------------------|
---------------------------------------------------------------|
---------------------------------------------------------------|

Recuerdame bien, recuerda...............
------------------------------------------------------------------------------------------|
------------------------------------------------------------------------------------------|
------5------------------------------------------------7----------------------------------|
2-----5-----------------------------------------2------7----------------------------------|
2-----3---------6-7-7-6-7-7-6-7-7-6-7-7-6-7-----2------5-----6-7-7-6-7-7-6-7-7-6-7-7-6-7--|
0-----------------------------------------------0-----------------------------------------|

Recuerdame bien, recuerda................
------------------------------------------------------------------------------------------|
------------------------------------------------------------------------------------------|
------5------------------------------------------------7----------------------------------|
2-----5-----------------------------------------2------7----------------------------------|
2-----3---------6-7-7-6-7-7-6-7-7-6-7-7-6-9-7---2------5-----6-7-7-6-7-7-6-7-7-6-7-7-6-7--|
0-----------------------------------------------0-----------------------------------------|

No digas que no me recuerdas mas.............
---------------------------------------------------------------|
---------------------------------------------------------------|
----------------7-7-7-7-----------5----------------------------|
2---------------7-7-7-7-----------5----------------------------|
2---------------5-5-5-5-----------3----------------------------|
0--------------------------------------------------------------|

Recuerda bien..............
---------------------------------------------------------------|
---------------------------------------------------------------|
---------5--------------------7-----5--------------------------|
2--------5---------2----------7-----5--------------------------|
2--------3---------2----------5-----3--------------------------|
0------------------0-------------------------------------------|

No digas que no me recuerdas mas.............
---------------------------------------------------------------|
---------------------------------------------------------------|
----------------7-7-7-7-----------5----------------------------|
2---------------7-7-7-7-----------5----------------------------|
2---------------5-5-5-5-----------3----------------------------|
0--------------------------------------------------------------|

Recuerda bien..............
---------------------------------------------------------------|
---------------------------------------------------------------|
---------5--------------------7-----5--------------------------|
2--------5---------2----------7-----5--------------------------|
2--------3---------2----------5-----3--------------------------|
0------------------0-------------------------------------------|

--------------------------------------------------------------|
--------------------------------------------------------------|
--------------------------------------------------------------|
--------4-4-0-4-4-0-------------------------------------------|
--------4-4-0-4-4-0--------2-2-2-3-3-3------------------------|
--------2-2-0-2-2-0-------------------------------------------|

--------------------------------------------------------------|
--------------------------------------------------------------|
--------------------------------------------------------------|
--------------------------------------------------------------|
--------------------------------------------------------------|
----2-2-0-2-2-0-----------------2-2-0-2-2-0-------------------|

--------------------------------------------------------------|
--------------------------------------------------------------|
--------------------------------------------------------------|
--------4-4-0-4-4-0-------------------------------------------|
--------4-4-0-4-4-0--------(3)-(3)-(4)-(5)--------------------|
--------2-2-0-2-2-0-------------------------------------------|

Dudas o comentarios pabloponce_freedomia@hotmail.com
comments
We did not receive enough feedback on this tab! Please rate:
print report bad tab
1 2 3 4 5
I want to post or [tab]
guest
You may want to rate the tab now too:
select rating
Please do not post tabs as comments. Select "correction" instead!