Oops, an error
Loading. Please wait.

Cold Blues Tab

223 views 15 this week
no commentswrite comment
1 2 3 4 5
2 more votes to show rating
add to favorites
launch autoscroll
font size
0
reset
how to read this tab
guitar tuner
Autoscroll
slow
fast
+/-
esc
set tempo
stop
Help us to improve Ultimate-Guitar.com Take our survey!
×
Author
Difficulty
novice
About this tab version
This is the only tab for this song at the moment. Was this info helpful? Yes No
The song is actually played in drop D, but this is tabbed to fit standard tuning. To play in Drop D, 
simply play this on the six and fifth string

[Intro] - Played through out the song
e|---------------------------------------------------------------------------|
B|---------------------------------------------------------------------------|
G|----------5---7b-5b---------5----------------------------------------------|
D|----5h7-7---7---------5h7-7---7-5--7---------------------------------------| x6
A|---------------------------------------------------------------------------|
E|---------------------------------------------------------------------------|
Here, 7b is a bend up, and 5b is a bend down

[Verse] - Played at 0:45 and 2:36
e|---------------------------------------------------------------------------|
B|---------------------------------------------------------------------------|
G|---7b-7p5---5--------------------------------------------------------------|
D|----------7---7------------------------------------------------------------|
A|---------------------------------------------------------------------------|
E|---------------------------------------------------------------------------|


************************************

| h   Hammer-on
| b   Bend
| p   Hammer-off

************************************
Suggest correction
Give kudos to tab author, rate the tab!
1 2 3 4 5
comments
print report bad tab
guest
You may want to rate the tab now too:
select rating
Wanna post a correction for this tab? Suggest correction