Oops, an error
Loading. Please wait.

Cumbia Sobre El Mar solo tab

1,084 views 24 this week
no commentswrite comment
1 2 3 4 5
3 more votes to show rating
add to favorites
×
Save as Personal and add changes to this tab that will be seen only by you. Learn more ›
×
You can save this tab as Personal to edit and correct it or add notes. All changes will be seen only by you. Learn more »
launch autoscroll
font size
0
reset
how to read this tab
guitar tuner
edit
Autoscroll
slow
fast
+/-
esc
set tempo
stop
Author
About this tab version
This is "Cumbia sobre el Mar" as interpreted by 'Quantic: The Flowering Orchestra (William Holland)' The Original Version is by Los Palmeras and was written down in the 50ties. Was this info helpful? Yes No
Cumbia sobre el Mar

 - by - Quantic & the Flowering Orchestra (Colombian traditional)



Although the solo is not finished, the main theme of this song is inherent already,
so it is worth sharing this piece already! Possibly you will be the one to finish it?
Also: The sheet description is wrong and for reasons I don't understand I can't change it anymore.
At least Leandro Torres y el Trío Serenata will be more earlier in recording this melody than Los Palmeras.
Maybe its  even a traditional, I don't know!
Also if somebody reading this knows how to add 'Cumbia' (and others) to the genre category-list would be
nice to change this education gap of the system!
ENJOY! :)


[Intro & Clarinet Solo 1]

e|------------------------------------------------------------|
B|------11---------------------9------------------------------|
G|-8-11----11-8-------------10---10-11-8----------------------|
D|--------------11-------11-----------------------------------|
A|------------------------------------------------------------|
E|------------------------------------------------------------|

e|-----------------9---------------------11-------------------|
B|-11-11-11-----11---9----12-12-12--9-12----11----------------|
G|-----------11-----------------------------------------------|
D|------------------------------------------------------------|
A|------------------------------------------------------------|
E|------------------------------------------------------------|

e|------------------------------------------------------------|
B|-11-11-11--------------------9------------------------------|
G|---------11-8-------------10---10-11-8----------------------|
D|--------------11-------11-----------------------------------|
A|------------------------------------------------------------|
E|------------------------------------------------------------|

e|-----------------9--------------------11--------------------|
B|-11-11-11-----11---9----12-9-12--9-12----11-----------------|
G|-----------11-----------------------------------------------|
D|------------------------------------------------------------|
A|------------------------------------------------------------|
E|------------------------------------------------------------|

e|-----------------9--------------------11--------------------|
B|-11-11-11-----11---9----12-12-12--9-12----11----------------|
G|-----------11--------------------------------11-8-----------|
D|------------------------------------------------------------|
A|------------------------------------------------------------|
E|------------------------------------------------------------|

e|------------------------------------------------------------|
B|------11---11-12-11-9---------------------------------------|
G|-8-11-----------------11-10-8-------------------------------|
D|------------------------------11----------------------------|
A|------------------------------------------------------------|
E|------------------------------------------------------------|

e|------------------------------------------------------------|
B|----9-9----9----11---------11-------------------------------|
G|--------10---10----11-8-11----------------------------------|
D|/11---------------------------------------------------------|
A|------------------------------------------------------------|
E|------------------------------------------------------------|

e|------------------------------------------------------------|
B|-11-11~~---------11-9------11-11~~---------11---------------|
G|---------11-8-11------10-----------11-8-11----11-8----------|
D|------------------------------------------------------------|
A|------------------------------------------------------------|
E|------------------------------------------------------------|

e|------------------------------------------------------------|
B|-11-11~~---------11-9------11-11~~---------11---------11----|
G|---------11-8-11------10-----------11-8-11----11-8-11-------|
D|------------------------------------------------------------|
A|------------------------------------------------------------|
E|------------------------------------------------------------|

e|------------------------------------------------------------|
B|---------11---11-12-11-9------------------------------------|
G|-11-8-11-----------------11-10-8----------------------------|
D|---------------------------------11-------------------------|
A|------------------------------------------------------------|
E|------------------------------------------------------------|

e|------------------------------------------------------------|
B|----9-9----9----11------11------11--------------------------|
G|--------10---10----11-8----11-8-----------------------------|
D|/11---------------------------------------------------------|
A|------------------------------------------------------------|
E|------------------------------------------------------------|

e|------------------------------------------------------------|
B|------------------------------------------------------------|
G|-------- ~~~ NOT FINISHED ~~~ TO BE CONTINUED ~~~ ----------|
D|--------------------------   (Possibly by you?)   ----------|
A|------------------------------------------------------------|
E|------------------------------------------------------------|   





***********************
Tabbing Legend:

/ = Slide up
~ = let ring
Suggest correction
Creating personal tab
Creating personal tab
You can edit any tab online and save it as your Personal.

You can edit, replace or remove any tab part or add personal notes – all changes will be seen only by you.

Personal tabs can be accessed anytime from any device, even offline.
Learn more »
Give kudos to tab author, rate the tab!
1 2 3 4 5
comments
print report bad tab
guest
You may want to rate the tab now too:
select rating
Wanna post a correction for this tab? Suggest correction