Oops, an error
Loading. Please wait.

Copycat Tab

1 view 1 this week
no commentswrite comment
1 2 3 4 5
3 more votes to show rating
add to favorites
launch autoscroll
font size
0
reset
how to read this tab
guitar tuner
Autoscroll
slow
fast
+/-
esc
set tempo
stop
Help us to improve Ultimate-Guitar.com Take our survey!
×
Author
Difficulty
Tuning
novice
D A D G B E
Song: Copycat
Artist: Quarashi
Album: Jinx
Tuning: Drop D

Verse
Guitar 1:
|---------------------|
|---------------------|
|---------------------|
|---1-1---1-1---1-1---|
|---1-1---1-1---1-1---|
|---1-1---1-1---1-1---|

Guitar 2: (p.m.)
|-------------------------|-------------------------|
|-------------------------|-------------------------|
|-------------------------|---8-x-7-x-6-x-6-x-9-8---|
|---2-1-x-x-x-2-1-x-x-x---|-------------------------|
|---2-1-x-x-x-2-1-x-x-x---|-------------------------|
|---2-1-x-x-x-2-1-x-x-x---|-------------------------|
   
|--------------------------------------------------------------------------|
|--------------------------------------------------------------------------|
|--------------------------------------------------------------------------|
|---13-13-14-13-14-13---12-13-12-13-12---11-12-11-12-11---10-11-10-11-10---|
|--------------------------------------------------------------------------|
|--------------------------------------------------------------------------|

Chorus:
|-----------------------|
|-----------------------|
|-----------------------|
|-----------------------|
|---6-x-5-x-4-----------|
|-------------x-6-x-6---|
Suggest correction
Give kudos to tab author, rate the tab!
1 2 3 4 5
comments
print report bad tab
guest
You may want to rate the tab now too:
select rating
Wanna post a correction for this tab? Suggest correction