Oops, an error
Loading. Please wait.

Stick Em Up Tab

1,947 views 9 this week
2 commentsread comments
1 2 3 4 5
1 last vote to show rating
add to favorites
launch autoscroll
font size
0
reset
how to read this tab
guitar tuner
Autoscroll
slow
fast
+/-
esc
set tempo
stop
Help us to improve Ultimate-Guitar.com Take our survey!
×
  Guitartabs for Stick 'Em Up

  Stick'em up
  Quarashi
  Jinx

Main riff:
--------------------------------------------
--------------------------------------------
--------------------------------------------
------3-1-3-1-3-1-3------3-1-3-1-3-1-3------
--------------------------------------------
---1-----------------4-1----------------4---

2nd guitar:
Intro:
---2--2---2--2---
---1--1---1--1---
-----------------
-----------------
-----------------
-----------------

2nd Riff:
---------------------
---------------------
---------------------
---3-x---3-3---3-3---
---3-x---3-3---3-3---
---1-x---1-1---1-1---

3 Riff:
---------------
---------------
---------------
---3-3---x-3---
---3-3---x-3---
---1-1---x-1---

this is taken from the quarashi website www.quarashi.tk and shud be 100% cerecct
Suggest correction
Give kudos to tab author, rate the tab!
1 2 3 4 5
comments
print report bad tab
2 comments total.
+1 reply
-loop-de-luke- 10 Jun 17, 2005 12:00 AM

I don't think http://www.quarashi.tk/ is their real website... .tk is a free domain thing, wouldn't they have .com or something? anyway, good tab...

0 reply
-loop-de-luke- 10 Jun 17, 2005 12:00 AM

Also the guitar bit where it says to do this:

|--2-2-2-2--|
|--1-1-1-1--|
|-----------|
|-----------|
|-----------|
|-----------|

It sounds more like it should be like this:

|--1-1-1-1--|
|--0-0-0-0--|
|-----------|
|-----------|
|-----------|
|-----------|

guest
You may want to rate the tab now too:
select rating
Wanna post a correction for this tab? Suggest correction