Oops, an error
Loading. Please wait.

Switchstance Tab

1 view 1 this week
no commentswrite comment
1 2 3 4 5
3 more votes to show rating
add to favorites
launch autoscroll
font size
0
reset
how to read this tab
guitar tuner
Autoscroll
slow
fast
+/-
esc
set tempo
stop
Help us to improve Ultimate-Guitar.com Take our survey!
×
Author
Difficulty
Quarashi - Switchstance

Main riff:
|-------------------------------------|
|-------------------------------------|
|-------------------------------------|
|-------------------------4-4-4-2-4---|
|---------3-3-3-3-3-4-4-4-------------|
|---2-2-2-----------------------------|

Bridge:
|--------------------------|
|--------------------------|
|--------------------------|
|--------------5-5-5-5-5---|
|--------------------------|
|---3-3-3-3-3--------------|

Solo:
|-----------------------------------------------------------------------------|
|-----------------------------------------------------------------------------|
|-----------------------------------------------------------------------------|
|-----7---9/---9-7-9/---9-7-9/---9-7--------7---9/---9-7-9/---9-7-------------|
|---9---9---------------------------------9---9---------------------7-7-7-8---|
|-----------------------------------------------------------------------------|
Suggest correction
Give kudos to tab author, rate the tab!
1 2 3 4 5
comments
print report bad tab
guest
You may want to rate the tab now too:
select rating
Wanna post a correction for this tab? Suggest correction