Oops, an error
Loading. Please wait.

Not In Luv Tab

28 views 15 this week
no commentswrite comment
1 2 3 4 5
3 more votes to show rating
add to favorites
launch autoscroll
font size
0
reset
how to read this tab
guitar tuner
Autoscroll
slow
fast
+/-
esc
set tempo
stop
Help us to improve Ultimate-Guitar.com Take our survey!
×
Author
Difficulty
novice
Listen to the song for the rhythm


[Intro] x2

e|-----------------------------------------------------------------------------------|
B|----0----0----0-----3--------------------------------------------------------------|
G|----0----0----0-----2p0------------------------------------------------------------|
D|-----------------------------------------------------------------------------------|
A|-------3----2----0-----------------------------------------------------------------|
E|-0---------------------------------------------------------------------------------|

e|----------------------------------------------------------------------------------|
B|----0-----0-----0---3---3---------------------------------------------------------|
G|----0-----0-----0---2---0---------------------------------------------------------|
D|--------------------0---0---------------------------------------------------------|
A|-------3-----2--------------------------------------------------------------------|
E|-0--------------------------------------------------------------------------------|
 

[Verse]

There are only 4 chords, I think it sounds better if you play the third and
fourth one mainly on the first strings

e|---0--00---0--00----0--00-----2--22----------------------------------------------------|
B|---1--11---1--11----1--11-----3--33----------------------------------------------------|
G|---0--00---0--00----0--00-----2--22----------------------------------------------------|
D|---0--00---2--22----2--22-----0--00----------------------------------------------------|
A|---2--22---3--33----2--22--------------------------------------------------------------|
E|---3--33-------------------------------------------------------------------------------|
However many times for the verse

[Outro] 
e|---0--00---0--00----0--00--------------------------------------------------------|
B|---1--11---1--11----1--11--------------------------------------------------------|
G|---0--00---0--00----0--00--------------------------------------------------------|
D|---0--00---2--22----2--22--------------------------------------------------------|
A|---2--22---3--33----2--22--------------------------------------------------------|
E|---3--33-------------------------------------------------------------------------|
  

************************************

| p  Pull-off

************************************
Suggest correction
Give kudos to tab author, rate the tab!
1 2 3 4 5
comments
print report bad tab
guest
You may want to rate the tab now too:
select rating
Wanna post a correction for this tab? Suggest correction