Oops, an error
Loading. Please wait.

A Kind Of Magic Live solo tab

by Queen
11,814 views 57 this week
no commentswrite comment
1 2 3 4 5
x 3
add to favorites
×
Save as Personal and add changes to this tab that will be seen only by you. Learn more ›
×
You can save this tab as Personal to edit and correct it or add notes. All changes will be seen only by you. Learn more »
launch autoscroll
font size
0
reset
how to read this tab
guitar tuner
edit
Autoscroll
slow
fast
+/-
esc
set tempo
stop
Author
Difficulty
intermediate
(3.05)
e|--------------------------------------------------------------------------|
B|-14h15~----14h15~-14h15~-14h15~-14h15~--14~-------------------------------|
G|-14---~----14---~-14---~-14-----14---~--14~-------------------------------|
D|-14h16~----14h16~-14h16~-14h16~-14h16~--14~-------------------------------|
A|--------------------------------------------------------------------------|
E|--------------------------------------------------------------------------|

e|-17p14--14----------------------------------------------------------------|
B|------17--17-14-17p14--14-------------------------------------------------|
G|---------------------16--16-14-16p14--16---14-b~\-------------------------|
D|------------------------------------16---16-------------------------------|
A|--------------------------------------------------------------------------|
E|--------------------------------------------------------------------------|

e|--------------------------------------------------------------------------|
B|--------------------------------------------------------------------------|
G|-x-12---12-12-12-12b------------------------------------------12-12/14b~r\|
D|---------------------14-12-10--x12-0-10-0-12-0-10-0-12-0-10-12------------|
A|--------------------------------------------------------------------------|
E|--------------------------------------------------------------------------|

e|--------------------------------------------------------------------------|
B|-14h15~----14h15~-14h15~-14h15~-14h15~--14~-------------------------------|
G|-14---~----14---~-14---~-14-----14---~--14~-------------------------------|
D|-14h16~----14h16~-14h16~-14h16~-14h16~--14~-------------------------------|
A|--------------------------------------------------------------------------|
E|--------------------------------------------------------------------------|

e|-12b---------14-17-14--14-------------------------------------------------|
B|---------------------17--17-14--14----------------------------------------|
G|------------------------------16--16-14--16-14----16-14~------------------|
D|---------------------------------------16------16-------------------------|
A|--------------------------------------------------------------------------|
E|--------------------------------------------------------------------------|

e|-----------------12b---------12-------15b-----19b-19-17-------------------|
B|---------------------------14--14-----------------------19-17-------------|
G|-----14-------------------------------------------------------18-17-16----|
D|-/14----16-------------------------------------------------------------19\|
A|--------------------------------------------------------------------------|
E|--------------------------------------------------------------------------|

(4.36)
e|--------------------------------------------------------------------------|
B|-14h15~----14h15~-14h15~-14h15~-14h15~--14~-------------------------------|
G|-14---~----14---~-14---~-14-----14---~--14~-------------------------------|
D|-14h16~----14h16~-14h16~-14h16~-14h16~--14~-------------------------------|
A|--------------------------------------------------------------------------|
E|--------------------------------------------------------------------------|

e|-17b----17br--14-17-14-17-14-17-14----14----------------------------------|
B|-----------------------------------17----17b-17b---17br-------------------|
G|---------------------------------------------------------14---------------|
D|--------------------------------------------------------------------------|
A|--------------------------------------------------------------------------|
E|--------------------------------------------------------------------------|

e|--------------------------------------------------------------------------|
B|------------------------17-16-15-14---------------------------------------|
G|-16b------16b--16b------------------17-16-15-14-----14-17p16p14-17p16p14~-|
D|------------------------------------------------16------------------------|
A|--------------------------------------------------------------------------|
E|--------------------------------------------------------------------------|

e|-14-17-14----14-17-14-17-14----14-17-14-17-14----14-17-14-17-14-----------|
B|----------17----------------17----------------17----------------17--------|
G|--------------------------------------------------------------------------|
D|--------------------------------------------------------------------------|
A|--------------------------------------------------------------------------|
E|--------------------------------------------------------------------------|

e|-14-17-14-17-14----14-17-14-17-14----14-17-14-17-14----14-17-14----14-----|
B|----------------17----------------17----------------17----------17--------|
G|--------------------------------------------------------------------------|
D|--------------------------------------------------------------------------|
A|--------------------------------------------------------------------------|
E|--------------------------------------------------------------------------|

e|--------------------------------------------------------------------------|
B|-17-14-17-14--14----14-17-14----14--17-14-17-14----14-15-14-15------------|
G|-----------------16----------16-----------------16-------------16---------|
D|--------------------------------------------------------------------------|
A|--------------------------------------------------------------------------|
E|--------------------------------------------------------------------------|

e|--------------------------------------------------------------------------|
B|-14-15-14-15----14-15-14-15----14-15-14----14-15-14-15----14-15-14-15-----|
G|-------------16-------------17----------17-------------17-------------17--|
D|--------------------------------------------------------------------------|
A|--------------------------------------------------------------------------|
E|--------------------------------------------------------------------------|

e|-------------------------------------------14-15-16-17b---17-19b-r--17~---|
B|-14-15-14----14-15-14----14----14-15-16-17--------------------------------|
G|----------17----------17----17--------------------------------------------|
D|--------------------------------------------------------------------------|
A|--------------------------------------------------------------------------|
E|--------------------------------------------------------------------------|

e|-19b-19pb19pb19pb19pb19pb19pb19pbr----------------------------------------|
B|-----------------------------------19-17-15-------------------------------|
G|--------------------------------------------17-16-14----------------------|
D|--------------------------------------------------------------------------|
A|--------------------------------------------------------------------------|
E|--------------------------------------------------------------------------|

e|--------------------------------------------------------------------------|
B|--------------------------------------------------------------------------|
G|-17b----14-14~/----\12~--12~-12~--12~-12h14p12-11-12----------------------|
D|-----16-------------------------------------------------------------------|
A|--------------------------------------------------------------------------|
E|--------------------------------------------------------------------------|

e|--------------------------------------------------------------------------|
B|--------------------------------------------------------------------------|
G|-17-14----14-16-14-17-14----14-16-14-17-14----14-17-14-16-14--------------|
D|-------16----------------16----------------16----------------16-----------|
A|--------------------------------------------------------------------------|
E|--------------------------------------------------------------------------|

e|--------------------------------------------------------------------------|
B|-14-17-14-16-14----17-14-16-14-------17b-17b-17b-17b---17-15-14-15-17-----|
G|----------------16-------------16~----------------------------------------|
D|--------------------------------------------------------------------------|
A|--------------------------------------------------------------------------|
E|--------------------------------------------------------------------------|

e|--------------------------------------------------------------------------|
B|----14~--14-14-14/--------------------------------------------------------|
G|-14------14-14-14/--------------------------------------------------------|
D|--------------------------------------------------------------------------|
A|--------------------------------------------------------------------------|
E|--------------------------------------------------------------------------|
                                                (2x)
e|------------------------------------------------|------17b--17~----------| 
B|-14h15~----14h15~-14h15~-14h15~-14h15~--14~-----|------------------------|
G|-14---~----14---~-14---~-14-----14---~--14~-----|------------------------|
D|-14h16~----14h16~-14h16~-14h16~-14h16~--14~-----|------------------------|
A|------------------------------------------------|------------------------|
E|------------------------------------------------|------------------------|


************************************

| h    Hammer-on
| ~    Vibrato
| p    Pull-off
| x    Dead note
| b    Bend
| /    Slide up
| \    Slide down
| br   Bend release
| r    Release
| pb   Pre-bend
| pbr  Pre-bend release

************************************

            
            
Suggest correction
Creating personal tab
Creating personal tab
You can edit any tab online and save it as your Personal.

You can edit, replace or remove any tab part or add personal notes – all changes will be seen only by you.

Personal tabs can be accessed anytime from any device, even offline.
Learn more »
Give kudos to tab author, rate the tab!
1 2 3 4 5
comments
print report bad tab
guest
You may want to rate the tab now too:
select rating
Wanna post a correction for this tab? Suggest correction