Oops, an error
Loading. Please wait.

Back Chat Bass Tab

version 1
version 1

Live

Whole song

Interactive

1,599 views 1 this week
no commentswrite comment
1 2 3 4 5
please rate
add to favorites
launch autoscroll
font size
0
reset
guitar tuner
Autoscroll
slow
fast
+/-
esc
set tempo
stop
Help us to improve Ultimate-Guitar.com Take our survey!
×
Author
Difficulty
intermediate
Bass tab of the Queen On Fire: Live at the Bowl version of Back Chat

0:27
G ----------------------------------------------------------------------|
D ------------------------------------------------3---------------------|
A ------------------3-------------3-5---3-5---3-5---5--3-5--------------|   :Repeat 3 times
E --3-5---3-5---3-5---5--3-5--------------------------------------------|

0:49
G ----------------------------------------------------------------------|
D --------------------------3-3-3---5-5-5-------------------------------|
A ----------3-3-3---5-5-5-----------------------------------------------|  :Repeat 2 times
E --5-5-5---------------------------------------------------------------|

1:03
G ----------------------------------------------------------------------|
D ------------------------------------------------3---------------------|
A ------------------3-------------3-5---3-5---3-5---5--3-5--------------|   :Repeat 3 times
E --3-5---3-5---3-5---5--3-5--------------------------------------------|

1:25
G ----------------------------------------------------------------------|
D --------------------------3-3-3---5-5-5-------------------------------|
A ----------3-3-3---5-5-5-----------------------------------------------|   :Repeat 2 times
E --5-5-5---------------------------------------------------------------|

1:39
G ----------------------------------------------------------------------|
D ------------------------------------------------3---------------------|
A ------------------3-------------3-5---3-5---3-5---5--3-5--------------|
E --3-5---3-5---3-5---5--3-5--------------------------------------------|

1:46
G ----------------------------------------------------------------------|
D ------------------------------------------------3---------------------|
A ------------------3-------------3-5---3-5---3-5---5--3-5--------------|
E --3-5---3-5---3-5---5--3-5----------------------------------5---------|

Drum Solo

2:02
Synth Solo
G ----------------------------------------------------------------------|
D ----------------------------------------------------------------------|
A ----------3------5----------------------------------------------------|
E ---5-----------------1-1-1--3-3-3-------------------------------------|


G ----------------------------------------------------------------------|
D ----------------------------------------------------------------------|
A -----------1h2h3-----3h4h5------5-3-----------------------------------|
E ---5---------------------------------5-1-----3------------------------|

2:16
G ----------------------------------------------------------------------|
D ------------------------------------------------3---------------------|
A ------------------3-------------3-5---3-5---3-5---5--3-5--------------|  :Repeat 2 times
E --3-5---3-5---3-5---5--3-5--------------------------------------------|

2:30
G ----------------------------------------------------------------------|
D --------------------------3-3---3h4h5-5-------------------------------|
A ----------3-3----5-5--------------------------------------------------|
E --5-5-----------------------------------------------------------------|


G ----------------------------------------------------------------------|
D ---------------------------------------1h2h3-3-3---5--5/12------------|
A --------------1h2h3-3-3----3h4h5-5-5----------------------------------|
E --3h4h5-5-------------------------------------------------------------|

2:45
G ----------------------------------------------------------------------|
D ------------------------------------------------3---------------------|
A ------------------3-------------3-5---3-5---3-5---5--3-5--------------|   :Repeat 4 times
E --3-5---3-5---3-5---5--3-5--------------------------------------------|

3:13
G ----------------------------------------------------------------------|
D ----------------------------------------------------------------------|
A ----------3-3-----5-5-------------------------------------------------|
E --5-5---------------------1-1-1----3-3-3/10---------------------------|

3:20
G ----------------------------------------------------------------------|
D ------------------------------------------------3---------------------|
A ------------------3-------------3-5---3-5---3-5---5--3-5--------------|   :Repeat 2 times
E --3-5---3-5---3-5---5--3-5--------------------------------------------|

3:35
G ----------------------------------------------------------------------|
D ----------------------------------------------------------------------|
A --------------3-----------------------------------15------------------|
E ----5----3-5------5--3-5/17--15-17--15-17--15-17-----17-15-17-17-17---|

3:42
G ----------------------------------------------------------------------|
D ----------------------------------------------------------------------|
A -----------------------15---------------------------------------------|  :Repeat 2 times
E --15-17--15-17--15-17-----17-15-17-17---------------------------------|

3:49
G ----------------------------------------------------------------------|
D ----------------------------------------------------------------------|
A -----------------3--------------------------------15------------------|
E --3-5--3-5--3-5----5--3-5/17--15-17--15-17--15-17-----17-15-17--------|

3:56
G ----------------------------------------------------------------------|
D ----------------------------------------------------------------------|
A -------------------------15---------------------------------- ---------|
E --15-17-17--15-17--15-17-----17-15-17-17------------------------------|


G ----------------------------------------------------------------------|
D ----------------------------------------------------------------------|
A ----------------------------15----------------------------------------|
E --15-17-17--15-17-17--15-17-----17-15-17-17-17------------------------|

4:03
G ----------------------------------------------------------------------|
D ----------------------------------------------------------------------|
A ------------------3---------------------------------------------------|
E --3-5---3-5---3-5---5--3-5-5-5----------------------------------------|


G ----------------------------------------------------------------------|
D ----------------------------3-----------------------------------------|
A ----------------------2-3-5---5-3-2-----------------------------------|
E --3-5-5---3-5-5--3-5----------------5-5-------------------------------|

4:11
G ----------------------------------------------------------------------|
D ----------------------------------------------------------------------|
A ------------3----------------------15---------------------------------|
E --3-5---3-5---5-3/17--15-17---15-17---17-15-17-17---------------------|


G ----------------------------------------------------------------------|
D ----------------------------------------------------------------------|
A ----------------------------15----------------------------------------|
E --15-17-17--15-17-17--15-17-----17-15-17-17-17------------------------|

4:20
G ----------------------------------------------------------------------|
D ----------------------------------------------------------------------|
A ------------------3--------3------------------------------------------|
E -5-3---3-5---3-5---5--3-5----5----------------------------------------|


G ----------------------------------------------------------------------|
D ----------------------------------------------------------------------|
A --------------------3-------------------------------------------------|
E --3-5-5---3-5---3-5---5--3-5-5-5--------------------------------------|

4:28
G ----------------------------------------------------------------------|
D ----------------------------------------------------------------------|
A -----------------3----------------------------------------------------| :Repeat 2 times
E --3-5---3-5--3-5---5--3-5---------------------------------------------|

4:35
G ----------------------------------------------------------------------|
D -----------------------2----------------------------------------------|
A -----------------2-3-5---5-3-2----------------------------------------|
E --3-5--3-5---3-5------------------------------------------------------|

4:39
G -----------------------------------------------------------------------|
D --------------------------3-3---3h4h5-5--------------------------------|
A ----------3-3----5-5---------------------------------------------------|
E --5-5-------------------------------------5-5--------------------------|
Suggest correction
Give kudos to tab author, rate the tab!
1 2 3 4 5
comments
print report bad tab
guest
You may want to rate the tab now too:
select rating
Please do not post tabs as comments. Select "correction" instead!