Oops, an error
Loading. Please wait.

Crazy Little Thing Called Love Bass Tab

version 1
version 1

Acoustic

Interactive

49 views 9 this week
no commentswrite comment
1 2 3 4 5
2 more votes to show rating
add to favorites
launch autoscroll
font size
0
reset
guitar tuner
Autoscroll
slow
fast
+/-
esc
set tempo
stop
Help us to improve Ultimate-Guitar.com Take our survey!
×
Author
Queen   Crazy Little Thing Called Love


Verse _2V

  D                                      G                 C   B       G
G-|--------------4--|--------------4--|-----------------|-----------------|
D-|-----4--7--7-----|-----4--7--7-----|--------------2--|-----------------|
A-|--5--------------|--5--------------|-----2--5--5-----|--3--3--2--2-----|
E-|-----------------|-----------------|--3--------------|--------------3--|x2

  D                    Bb     C       D
G-|--------------4--|--------------|----------4---------|
D-|-----4--7--7-----|--------------|-----4--7---7-7-----|
A-|--5--------------|--1--1--3--3--|--5--------------5--|
E-|-----------------|--------------|--------------------|


Second verse 

   G                                     C            G
G-|-----------------|-----------------|--------------|-----------------|
D-|--5--2--------2--|--5--2--------2--|--------------|--------------2--|
A-|--------5--5-----|--------5--5-----|--3--3--3--3--|-----2--5--5-----|
E-|-----------------|-----------------|--------------|--3--------------|
   Bb
G-|--------------|--------------|
D-|--8--7--5-----|--------------|
A-|-----------8--|--6--5--------|
E-|--------------|--------8--6--|
  
  Break
G-|-------------------|----------------|----------------|----------------|
D-|-------------------|----------------|----------------|--7-7--5--4-----|
A-|--7--7-------------|--5-4-3---------|---------7-7-7--|-------------7--|
E-|--------5-5--5--1--|---------5-4-3--|--0-0-0---------|----------------|

3rd verse 

  Guitar solo...
  Bb                                D     G         D                              
G-|--------------|----------------|--------------|-------------4--|
D-|--8--5-----5--|--8-8--5-----5--|--------5--5--|-----4--7-7-----|
A-|--------8-----|----------8-----|--5--5--------|--5-------------|
E-|--------------|----------------|--------------|----------------|
   Bb
G-|-------------|------------|
D-|--8-7--5-----|------------|
A-|----------8--|6--5--8--6--|
E-|-------------|------------|
  Break
G-|-------------------|----------------|--------------|---------------|
D-|-------------------|----------------|--------------|------7-5-4----|
A-|--7--7-------------|--5-4-3---------|---------7----|------------7--|
E-|--------5-5--5--1--|---------5-4-3--|--0-0-0-------|---------------|

4rd verse    final
Suggest correction
Give kudos to tab author, rate the tab!
1 2 3 4 5
comments
print report bad tab
guest
You may want to rate the tab now too:
select rating
Wanna post a correction for this tab? Suggest correction