Oops, an error
Loading. Please wait.

Crazy Little Thing Called Love Bass Tab

version 6
version 6
37,141 views 84 this week
2 commentsread comments
1 2 3 4 5
x 35
add to favorites
launch autoscroll
font size
0
reset
guitar tuner
×
Best way to learn
"Crazy Little Thing Called Love"
Autoscroll
slow
fast
+/-
esc
set tempo
stop
Author
Difficulty
  follow
intermediate
-----------------------------------------------------------------------------
Crazy Little Thing Called Love - Queen
Bass Tab
-----------------------------------------------------------------------------

Tabbed By : BenWhite 
e-mail: Monkeybenny@hotmail.co.uk

Tuning: E,A,D,G

00:06
G|----------4-|----------4-|----4--7--9-|-5--5--4----|
D|----4--7----|----4--7----|-5----------|----------5-|
A|-5----------|-5----------|------------|------------|
E|------------|------------|------------|------------|

G|----------4-|----------4-|----4--7--9-|-5--5--4----|
D|----4--7----|----4--7----|-5----------|----------5-|
A|-5----------|-5----------|------------|------------|
E|------------|------------|------------|------------|

G|----------4-|------------|----------4-|-7----------|
D|----4--7----|------------|----4--7----|------------|
A|-5----------|------------|-5----------|------------|
E|------------|-6--6--8--8-|------------|------------|


G|--------------4-|----------4-|----4--7--9-|-5--5--4----|
D|--------4--7----|----4--7----|-5----------|----------5-|
A|-9\--5----------|-5----------|------------|------------|
E|----------------|------------|------------|------------|

G|----------4-|----------4-|----4--7--9-|-5--5--4----|
D|----4--7----|----4--7----|-5----------|----------5-|
A|-5----------|-5----------|------------|------------|
E|------------|------------|------------|------------|

G|----------4-|------------|----------4-|-7----------|
D|----4--7----|------------|----4--7----|------------|
A|-5----------|------------|-5----------|------------|
E|------------|-6--6--8--8-|------------|------------|


00:43
G|------------|------------|------------|------------|------------|
D|------------|------------|------------|------------|------------|
A|---------9\-|----7--5--7-|----7--5--7-|-3--3--3--3-|----7--5--7-|
E|------------|-3----------|-3----------|------------|-3----------|

G|------------|------------|------------|------------|
D|-8--7--5----|------------|------------|------------|
A|----------8-|-6--5-------|-0--0-------|------------|
E|------------|-------8--6-|-------0--0-|-1----------|

G|------------|------------|
D|------------|------------|
A|-----5-4-3--|------------|
E|------------|-----5-4-3--|

G|-------------|-------------|
D|-------------|-7-7-5-------|
A|-7-7-7-7-7-7-|--------9--7-|
E|-------------|-------------|

01:02
G|----------4-|----------4-|----4--7--9-|-5--5--4----|
D|----4--7----|----4--7----|-5----------|----------5-|
A|-5----------|-5----------|------------|------------|
E|------------|------------|------------|------------|

G|----------4-|----------4-|----4--7--9-|-5--5--4----|
D|----4--7----|----4--7----|-5----------|----------5-|
A|-5----------|-5----------|------------|------------|
E|------------|------------|------------|------------|

G|----------4-|------------|----------4-|-7----------|
D|----4--7----|------------|----4--7----|------------|
A|-5----------|------------|-5----------|------------|
E|------------|-6--6--8--8-|------------|------------|

01:21
G|-------------|---------------|------------|----------4-|
D|-8-----------|-8-8-----------|-------5--5-|----4--7----|
A|---10--8--10-|-----10--8--10-|-5--5-------|-5----------|
E|-------------|---------------|------------|------------|

G|------------|------------|---------------|
D|-8--7--5----|------------|---------------|
A|----------8-|-6--5-------|-0--0----------|
E|------------|-------8--6-|-------0--0--1-|

G|-----------|------------|
D|-----------|------------|
A|-----5-4-3-|------------|
E|-----------|------5-4-3-|

G|-------------|----------|
D|---------4-5-|-7--------|
A|-7-7-7-7-----|----------|
E|-------------|----------|

1:56
G|-------------|
D|---7-5-------|
A|--------9--7-|
E|-------------|

1:58
G|----------4-|----------4-|----4--7--9-|-5--5--4----|
D|----4--7----|----4--7----|-5----------|----------5-|
A|-5----------|-5----------|------------|------------|
E|------------|------------|------------|------------|

G|----------4-|----------4-|----4--7--9-|-5--5--4----|
D|----4--7----|----4--7----|-5----------|----------5-|
A|-5----------|-5----------|------------|------------|
E|------------|------------|------------|------------|

G|----------4-|------------|----------4-|------------|
D|----4--7----|------------|----4--7----|------------|
A|-5----------|------------|-5----------|------------|
E|------------|-6--6--8--8-|------------|-6--6--8--8-|

G|----------4-|------------|----------4-|------------|
D|----4--7----|------------|----4--7----|------------|
A|-5----------|------------|-5----------|------------|
E|------------|-6--6--8--8-|------------|-6--6--8--8-|

G|----------4-|------------|----------4-|------------|
D|----4--7----|------------|----4--7----|------------|
A|-5----------|------------|-5----------|------------|
E|------------|-6--6--8--8-|------------|-6--6--8--8-|

G|----------4-|------------|----------4-|------------|
D|----4--7----|------------|----4--7----|------------|
A|-5----------|------------|-5----------|------------|
E|------------|-6--6--8--8-|------------|-6--6--8--8-|...



************************************

| \  Slide down

************************************
Suggest correction
comments
print report bad tab
2 comments total.
0 reply
Citymariner 10 Oct 01, 2013 03:28 AM

Thanks for this, was a useful reference.

0 reply
bevers1 10 Jan 05, 2015 02:11 PM

G|----------4-|------------|
D|----4--7----|------------|
A|-5----------|------------|
E|------------|-6--6--8--8-|

should be this
G|----------4-|-3--3--5--5-|
D|----4--7----|------------|
A|-5----------|------------|
E|------------|------------|

great tab though!

guest
You may want to rate the tab now too:
select rating
Wanna post a correction for this tab? Suggest correction