Oops, an error
Loading. Please wait.

Crazy Little Thing Called Love Bass Tab

version 6
version 6
24,567 views 15 this week
2 commentsread comments
1 2 3 4 5
x 6
add to favorites
launch autoscroll
font size
0
reset
guitar tuner
Autoscroll
slow
fast
+/-
esc
set tempo
stop
Help us to improve Ultimate-Guitar.com Take our survey!
×
Difficulty
intermediate
Dennis K - Please Comment/Rate

Queen

Crazy Little Thing Called love Bass Tab

Part A (verse)

G|-----------4---------------4---------4--7--9-----------------------|
D|-----4--7------------4--7---------5---------------10--10--9--------|
A|--5---------------5------------------------------------------10----|
E|-------------------------------------------------------------------|

Part B (chorus)

G|-----------4-------------------------------4-----------------------|
D|-----4--7----------------------------4--7--------------------------|
A|--5---------------1--1--3--3------5-----------5--------------------|
E|-------------------------------------------------------------------|

Part C (verse 2)

G|-------------------------------------------------------------------|
D|--5---------------5-------------------------------5----------------|
A|-----7--5--7---------7--5--7------3--3--3--3---------7--5--7-------|
E|-------------------------------------------------------------------|

Part D (2nd part verse)

G|--3--2--0----------------------------------------------------------|
D|-----------3--1--0-------------------------------------------------|
A|--------------------3--1------7--7---------------5--4--3-----------|
E|------------------------------------5--5--1---------------5--4--3--|

Part E (interlude)

G|-------------------------------------------------------------------|
D|--------------------------7--7--5--4-------------------------------|
A|--7--7--7--7--7--7--7--7--------------7----------------------------|
E|-------------------------------------------------------------------|

Part F (solo)

G|-----------------------------------------------------------4-------|
D|-----------4---------------4------------5--5---------4--7----------|
A|-----4--7------------4--7---------5--5------------5----------------|
E|--5---------------5------------------------------------------------|

Part G (outro)

G|-----------4-------------------------------------------------------|
D|-----4--7----------------------------------------------------------|
A|--5-------------1--1--3--3-----------------------------------------|
E|-------------------------------------------------------------------|

Part A x2 = 0:00-0:19
Part B x1 = 0:19-0:23
Part A x2 = 0:23-0:37
Part B x1 = 0:37-0:42
Part C x1 = 0:42-0:49
Part D x1 = 0:49-0:58
Part E x1 = 0:58-1:01
Part A x2 = 1:01-1:13
Part B x1 = 1:13-1:18
Part F x1 = 1:18-1:26
Part D x1 = 1:26-1:35
Part E x1 = 1:35-1:58
Part A x2 = 1:58-2:10
Part G x8 = 2:10-2:43
Suggest correction
comments
print report bad tab
2 comments total.
-1 reply
howmuchwassaid 10 Aug 18, 2010 11:31 PM

I THINK THIS IS THE BEST TAB FOR THIS SONG! IT IS VERY HELPFUL! ALL OTHER TABS ARE WRONG! GO DENNIS!

0 reply
diegosmbass 51 Nov 11, 2010 02:02 PM

best tab nice!

guest
You may want to rate the tab now too:
select rating
Wanna post a correction for this tab? Suggest correction