Oops, an error
Loading. Please wait.
We have an official Dont Stop Me Now tab made by UG professional guitarists. Check out the tab »
×
by Queen
1,081 views 12 this week
no commentswrite comment
1 2 3 4 5
x 3
add to favorites
×
Save as Personal and add changes to this tab that will be seen only by you. Learn more ›
×
You can save this tab as Personal to edit and correct it or add notes. All changes will be seen only by you. Learn more »
launch autoscroll
font size
0
reset
how to read this tab
guitar tuner
backing track
0:00
0:00
edit
Autoscroll
slow
fast
+/-
esc
set tempo
stop
Author
Difficulty
-------------------------------------------------------------------------------
                             Dont stop me now - Queen
-------------------------------------------------------------------------------
Tabbed by: victorschultz
E-mail: victorschultz111@gmail.com

Tuning: Standard (EADGBE)

Notice:
You can see what pbs is in the legend. I made it because i couldn't seem to
make the right sound without making a new one. Basically you just pick a
note again after you bended it.
Additionally i'm not sure if the part after the solo is correct, because
you can't hear it properly.

Solo
                        alright
e|--------------------------------------------------------------------|
B|-10---10---8------10---10--------------8--------------11--10--8-----|
G|-------------10-9-----------10--9--10-----10--9--10--------------10-|
D|--------------------------------------------------------------------|
A|--------------------------------------------------------------------|
E|--------------------------------------------------------------------|

e|--------------------------------------------------------------------------|
B|--8b10--8-10-8-10p8------11b13---pbs13---11p10p8--11b13---pbs13---11p10p8-|
G|--------------------------------------------------------------------------|
D|--------------------10~---------------------------------------------------|
A|--------------------------------------------------------------------------|
E|--------------------------------------------------------------------------|

e|---------------------------------------------------------------------------|
B|--11-10-8-10---11--10--8------8b10--8-10-8-10-8-10p8-----------------------|
G|--------------------------10-------------------------10--------------------|
D|---------------------------------------------------------------------------|
A|---------------------------------------------------------------------------|
E|---------------------------------------------------------------------------|
Solo end

  Ooh
  I'm burning through the sky yeah!   Two hundred degrees
e|--------------------------------------------------------|
B|------------------------3---3--3--3--3------------------|
G|--------------------------------------------------------|
D|--------------------------------------------------------|
A|--------------------------------------------------------|
E|-1---3--------------------------------------------------|

That's why they call me Mister Fahrenheit                  I'm trav'ling at the speed of light
e|-----------------------------------------10-10-10-10-10-10-----------------------------------|
B|---------------------------------------------------------------------------------------------|
G|---------------------------------------------------------------------------------------------|
D|---------------------------------------------------------------------------------------------|
A|---------------------------------------------------------------------------------------------|
E|---------------------------------------------------------------------------------------------|

    I wanna make a supersonic man out of you
e|------------------------------------------14---14-14---14-14-14------------|
B|---------------------------------------------------------------------------|
G|---------------------------------------------------------------------------|
D|---------------------------------------------------------------------------|
A|---------------------------------------------------------------------------|
E|---------------------------------------------------------------------------|

End

************************************

| p   pull-off
| ~   vibrato
| b   Bend
| br  Bend release
| pbs Pick bended string

************************************
Suggest correction
Creating personal tab
Creating personal tab
You can edit any tab online and save it as your Personal.

You can edit, replace or remove any tab part or add personal notes – all changes will be seen only by you.

Personal tabs can be accessed anytime from any device, even offline.
Learn more »
Give kudos to tab author, rate the tab!
1 2 3 4 5
comments
print report bad tab
guest
You may want to rate the tab now too:
select rating
Wanna post a correction for this tab? Suggest correction