Oops, an error
Loading. Please wait.
We have an official Dont Stop Me Now tab made by UG professional guitarists. Check out the tab »
×

Dont Stop Me Now bass

version 3
version 3

Whole song

by Queen
10,232 views 129 this week
3 commentsread comments
1 2 3 4 5
x 22
add to favorites
×
Save as Personal and add changes to this tab that will be seen only by you. Learn more ›
×
You can save this tab as Personal to edit and correct it or add notes. All changes will be seen only by you. Learn more »
launch autoscroll
font size
0
reset
guitar tuner
backing track
0:00
0:00
edit
Autoscroll
slow
fast
+/-
esc
set tempo
stop
Author
Difficulty
intermediate
Tuning: Standard

[Intro]
(0:00-0:34)  
  F    Am   Dm   Gm   C                 F                  F7                 Bb                 Gm
G|----|----|----|----|-------------/14\|10~~~~~~~~~~~~~10/|14~~~~~~~~~~~~~14/|15~~~~~~~~~~~~~15\|12~~~|
D|----|----|----|----|-----------------|------------------|------------------|------------------|-----|
A|----|----|----|----|-----------------|------------------|------------------|------------------|-----|
E|----|----|----|----|-----------------|------------------|------------------|------------------|-----|
   
  D7   Gm Dm C Gm7 Gm Dm C     Gm   C7                                 
G|----|-----------|-----------|----|----------------|
D|----|-----------|-----------|----|----------------|
A|----|-----------|-----------|----|3-3-3--5--7~~~~\|
E|----|-----------|-----------|----|----------------|
                              (^tempo increases here)

[Verse 1]
(0:34-1:05)
  F                Am               Dm               Gm               C
G|----------------|----------------|----------------|----------------|----------------|
D|----------------|----------------|----------------|----------------|------------5---|
A|----------------|----------------|5-5-5-5-5-5-5-5-|----------------|3-3-3-3-3-3---3-|
E|1-1-1-1-1-1-1-1-|5-5-5-5-5-5-5-5-|----------------|3-3-3-3-3-3-3-3-|----------------|

  F                Am               Dm               Gm               C
G|----------------|----------------|----------------|----------------|----------------|
D|----------------|----------------|----------------|----------------|----------------|
A|----------------|----------------|5-5-5-5-5-5-5-5-|----------------|3-3-3-3-3-3-5-7-|
E|1-1-1-1-1-1-1-1-|5-5-5-5-5-5-5-5-|----------------|3-3-3-3-3-3-3---|----------------|

  F                  F7               Bb               Gm               D7
G|------------------|8-8-8-8-8-8-8-8-|----------------|----------------|----------------|
D|-------------8-10-|----------------|8-8-8-8-8-8-8-7-|5-5-5-5-5-5-5-5-|4-4-0-4---0-4-0-|
A|8-8-8-8-8-10------|----------------|----------------|----------------|----------------|
E|------------------|----------------|----------------|----------------|----------------|

  Gm               D7               Gm                             C
G|----------------|----------------|----------------|----------------|-----------------|
D|5-5-5-5-5-5-5-5-|4-4-0-4---0-4-0-|5-5-5-5-5-3-2-0-|----------------|-----------------|
A|----------------|----------------|----------------|----0-0-1-1-1-3-|/-------10---8\--|
E|----------------|----------------|----------------|3-3-------------|-----------------|

[Chorus] 
(1:05-1:28)
  Fm    Gm  Am  Dm                  Gm               C
G|----------------|----------------|----------------|------5--3------|
D|----------------|----------------|----------------|------------5-3-|
A|--------------5-|--5-5-5-5-5-5-5-|----------------|3-3-3-----------|
E|1-1---3---5-----|----------------|3-3-3-3-3-3-3-3-|----------------|

  Fm    Gm  Am  Dm                  Gm               D7
G|----------------|----------------|----------------|----------------|
D|----------------|----------------|----------------|4-4-0-4---0-4-0-|
A|--------------5-|--5-5-5-5-5-5-5-|----------------|----------------|
E|1-1---3---5-----|----------------|3-3-3-3-3-3-3-3-|----------------|

  Gm    Dm  C   Gm7                 Gm    Dm  C   Gm7
G|----------------|----------3-----|----------------|----------------|
D|5-----3---------|------------5-3-|5-----3---------|--0-3-5---------|
A|----------3-----|----------------|----------3-----|----------------|
E|--------------3-|--3-3-3-3-------|--------------3-|------------3-3-|

  C7               Bbm
G|----------------|-----------/15~~~|~~~~~~~~|
D|----------------|-----/8----------|--------|
A|3-3-3-----3-3-3-|1----------------|--------|
E|----------------|-----------------|--------|

[Verse 2]
(1:28-1:58)
  F                Am               Dm               Gm               C
G|----------------|----------------|----------------|----------------|----------------|
D|----------------|----------------|----------------|----------------|----------2-2-3-|
A|----------------|----------------|5-5-5-5-5-5-5-5-|----------------|3-3-3-3-3-------|
E|1-1-1-1-1-1-1-1-|5-5-5-5-5-5-5-5-|----------------|3-3-3-3-3-3-3-3-|----------------|

  F                Am               Dm               Gm               C
G|----------------|----------------|----------7-7-7-|-------7--5-----|----------------|
D|----------------|----------------|----------------|5-5-5--------7--|----------------|
A|----------------|----------------|5-5-5-5-5-------|----------------|3-3-3-3-3-3-5-7-|
E|1-1-1-1-1-1-1-1-|5-5-5-5-5-5-5-5-|----------------|----------------|----------------|

  F                  F7               Bb               Gm               D7
G|------------------|8-8-8-8-7---5---|----------------|----------------|----------------|
D|-------------8-10-|----------------|8-8-8-8-8-8-8-7-|5-5-5-5-5-4-5---|4-4-0-4---0-4-0-|
A|8-8-8-8-8-10------|----------------|----------------|----------------|----------------|
E|------------------|----------------|----------------|----------------|----------------|

  Gm               D7               Gm                             C
G|----------------|----------------|----------------|----------------|----------------|
D|5-5-5-5-5-5-5-5-|4-4-0-4---0-4-0-|5-5-5-5-5-5-5-5-|----------------|----------------|
A|----------------|----------------|----------------|----0-0-1-1-1-3-|/---------------|
E|----------------|----------------|----------------|3-3-------------|----------------|

[Bridge]
(1:58-2:13)
(No bass in bridge)

[Solo] 
(2:13-2:43)
  F                Am               Dm               Gm               C
G|----------------|----------------|----------------|----------------|----------------|
D|----------------|----------------|----------------|--------5-------|----------------|
A|----------------|----------------|5-5-5-5-5-5-5-5-|------------5---|3-3-3-3-3-1-1-0-|
E|1-1-1-1-1-1-1-1-|5-5-5-5-5-5-5-5-|----------------|3-3-3-3---------|----------------|

  F                Am               Dm               Gm               C
G|----------------|----------------|----------7-----|----------------|----------------|
D|----------------|----------------|------7-----7---|--------5-------|----------------|
A|----------------|----------------|5-5-5---------5-|------------5---|3-3-3-3-3-3-5-7-|
E|1-1-1-1-1-1-1-1-|5-5-5-5-5-5-5-5-|----------------|3-3-3-3---------|----------------|

  F                  F7               Bb               Gm               D7
G|------------------|8-8-8-8-8-8-7-5-|----------------|------7-----7---|----------------|
D|-------------8-10-|----------------|8-8-8-8-8-8-8-7-|5-5-5---5-5---5-|4-4-0-4---0-4-0-|
A|8-8-8-8-8-10------|----------------|----------------|----------------|----------------|
E|------------------|----------------|----------------|----------------|----------------|

  Gm               D7               Gm                                C
G|----------------|----------------|----------------|----------------|----------------|
D|5-5-5-5-5-5-5-5-|4-4-0-4---0-4---|5-5-5-5-5-3-2-0-|----------------|----------------|
A|----------------|----------------|----------------|----0-0-1-1-1-3-|--3---3-3-1-0---|
E|----------------|----------------|----------------|3-3-------------|--------------3-|

[Chorus] 
(2:44-3:06)
  Fm    Gm  Am  Dm                  Gm               C
G|----------------|----------------|----------------|------5-----5---|
D|----------------|----------------|----------------|----------------|
A|--------------5-|--5-5-5-5-5-5-5-|----------------|3-3-3----3----3-|
E|1-1---3---5-----|----------------|3-3-3-3-3-3-3-3-|----------------|

  Fm    Gm  Am  Dm                  Gm               D7
G|----------------|----------------|----------------|----------------|
D|----------------|----------------|----------------|0-0-0-0-0-4-0-4-|
A|--------------5-|--5-5-0-5-0-5-0-|----------0-1-3-|----------------|
E|1-1---3---5-----|----------------|3-3-3-3-3-------|----------------|

  Gm    Dm  C   Gm7                 Gm    Dm  C   Gm7
G|----------------|----------3-----|----------------|----------------|
D|5-----3---------|------------5-3-|5-----3---------|----------------|
A|----------3-----|----------------|----------3-----|----------------|
E|--------------3-|--3-3-3-3-------|--------------3-|--3-3-3-3-3-3-3-|

  C                Bbm      F
G|----------------|--------|--------|
D|----------------|--------|--------|
A|3-3-3-3-3-3---3-|1~~~~~~~|--------|
E|----------------|--------|1~~~~~~~|


************************************

| /  Slide up
| \  Slide down
| ~  Vibrato 

************************************

            
            
Suggest correction
Creating personal tab
Creating personal tab
You can edit any tab online and save it as your Personal.

You can edit, replace or remove any tab part or add personal notes – all changes will be seen only by you.

Personal tabs can be accessed anytime from any device, even offline.
Learn more »
comments
print report bad tab
3 comments total.
0 reply
Yoctatrine 10 Aug 18, 2015 04:41 AM

Good tab man! Best one yet, although I feel like something is missing in the intro, between the G:12~ and the tempo increase, I could be wrong though. Thanks!

guest
You may want to rate the tab now too:
select rating
Wanna post a correction for this tab? Suggest correction