Oops, an error
Loading. Please wait.

Dreamers Ball Tab

version 2
version 2

Whole song

Interactive

584 views 1 this week
no commentswrite comment
1 2 3 4 5
please rate
add to favorites
launch autoscroll
font size
0
reset
how to read this tab
guitar tuner
Tab Pro tools
  • play this tab
  • loop segment
  • change instrument
  • show fretboard
  • metronome
×
Best way to learn
"Dreamers Ball"
Autoscroll
slow
fast
+/-
esc
set tempo
stop
Contributor
DREAMER'S BALL - Queen

Tabbed by: bocajoay
Tuning:Standard

Intro:
e|-0-5---4----2---------------0-1----------0----|
B|-2-2-6-6---3--3-0---1-1-2-3-------1-0------1--|
G|-2-2-4-4--2-------2-----2--------1----2-----1-|
D|-----6---0----------------------2-----2-------|
A|-0-0-4-4----------------0-------------0-------|
E|--------------------------------0--------0----|

Part 1.1
e|-------0-|
B|-2-2-2-2-|
G|-2-2-2-0-|
D|-2-2-2---|
A|-0-0-0-0-|
E|---------|
 i)Oh I used to be your baby

e|-2-2-2-1----------0---------1----------0---------0-|
B|-3-3-3-2-5-5-----3-3-------3--2-2-----2-2-------2--|
G|-2-2-2-1-6-6----1---1-----1---2-1----0---0-----0---|
D|-0-0-0-0-7-7---0-----0---0----2-2---2-----2---2----|
A|---------0----0-------0-0-----0-0--0-------0-0-----|
E|-----------0-0---------0----------0---------0------|
 i)Used to be your pride and joy

e|-2-2-2-1-|
B|-3-3-3-2-|
G|-2-2-2-1-|
D|-0-0-0-0-|
A|---------|
E|---------|
 i)You used to take me dancing

e|-2-2-2-1----------0---------1----------0---------0-|
B|-3-3-3-2-5-5-----3-3-------3--2-2-----2-2-------2--|
G|-2-2-2-1-6-6----1---1-----1---2-1----0---0-----0---|
D|-0-0-0-0-7-7---0-----0---0----2-2---2-----2---2----|
A|---------0----0-------0-0-----0-0--0-------0-0-----|
E|-----------0-0---------0----------0---------0------|
 i)Just like any other boy

e|-0-0-0-0-|
B|-3-3-3-3-|
G|-1-1-1-1-|
D|---------|
A|---------|
E|-0-0-0-0-|
 i)But now you've found another partner

e|-2-2--------------0---------0-|
B|-3-3-4-3-2-2-----0-0-------0--|
G|-2-2-2-1-2-2----1---1-----1---|
D|-0-0-3-2-2-2---0-----0---0----|
A|-----0---0-0--0-------0-0-----|
E|-------0-----0---------0------|
 i)You've left me like a broken toy

Part 1.2
e|-------0-|
B|-2-2-2-2-|
G|-2-2-2-0-|
D|-2-2-2---|
A|-0-0-0-0-|
E|---------|
ii)Oh it's someone else you're taking

e|-2-2-2-1----------0---------1----------0---------0-|
B|-3-3-3-2-5-5-----3-3-------3--2-2-----2-2-------2--|
G|-2-2-2-1-6-6----1---1-----1---2-1----0---0-----0---|
D|-0-0-0-0-7-7---0-----0---0----2-2---2-----2---2----|
A|---------0----0-------0-0-----0-0--0-------0-0-----|
E|-----------0-0---------0----------0---------0------|
ii)Someone else you're playing to

e|-2-2-2-1-|
B|-3-3-3-2-|
G|-2-2-2-1-|
D|-0-0-0-0-|
A|---------|
E|---------|
ii)Honey though I'm aching

e|-2-2-2-1----------0---------1----------0---------0-|
B|-3-3-3-2-5-5-----3-3-------3--2-2-----2-2-------2--|
G|-2-2-2-1-6-6----1---1-----1---2-1----0---0-----0---|
D|-0-0-0-0-7-7---0-----0---0----2-2---2-----2---2----|
A|---------0----0-------0-0-----0-0--0-------0-0-----|
E|-----------0-0---------0----------0---------0------|
ii)Know just what I have to do

e|-0-0-0-0-|
B|-3-3-3-3-|
G|-1-1-1-1-|
D|---------|
A|---------|
E|-0-0-0-0-|
ii)If I can't have you when I'm waking

e|-2-2--------------0---------0-|
B|-3-3-4-3-2-2-----0-0-------0--|
G|-2-2-2-1-2-2----1---1-----1---|
D|-0-0-3-2-2-2---0-----0---0----|
A|-----0---0-0--0-------0-0-----|
E|-------0-----0---------0------|
ii)I'll go to sleep and dream of you

Part 2.1
e|-0-0-----|
B|-2-2-2-2-|
G|-2-2-2-2-|
D|-----2-2-|
A|-0-0-0-0-|
E|---------|
 i)Oh take me take me

e|-----4-4---------|
B|-6-6-6-6-2-2-2-2-|
G|-4-4-4-4-2-2-2-2-|
D|-6-6-----4-3-2-2-|
A|-----4-4---------|
E|-4-4-----2-2-2-2-|
 i)Take me to the Dreamer's Ball

e|-2-2-0-0-|
B|-3-3-2-2-|
G|-2-2-2-2-|
D|-0-0-----|
A|-----0-0-|
E|---------|
 i)I'll be right on time

e|-2-2-0-0-|
B|-3-3-2-2-|
G|-2-2-2-2-|
D|-0-0-----|
A|-----0-0-|
E|---------|
 i)And I'll dress so fine you're gonna

e|---------|
B|-4-4-4-4-|
G|-2-2-2-2-|
D|-4-4-4-4-|
A|-2-2-2-2-|
E|---------|
 i)Love me when you see me I won't 

e|-0-0-0-0-|
B|---------|
G|-1-2-3-4-|
D|-2-4-5-6-|
A|---------|
E|-0-0-0-0-|
i)Have to worry

e|-0-0-----|
B|-2-2-6-6-|
G|-2-2-4-4-|
D|-----6-6-|
A|-0-0-4-4-|
E|---------|
 i)Take me take me

e|-2-2-1-1-|
B|-3-3-3-3-|
G|-2-2-2-2-|
D|-0-0-0-0-|
A|---------|
E|---------|
 i)Promise not to wake me

e|-0-0-----|
B|-2-2-4-3-|
G|-2-2-2-1-|
D|-----3-2-|
A|-0-0-0---|
E|-------0-|
 i)Till it's morning and it's all been

e|----------0---------0-|
B|-2-2-----0-0-------0--|
G|-2-2----1---1-----1---|
D|-2-2---0-----0---0----|
A|-0-0--0-------0-0-----|
E|-----0---------0------|
 i)True

Part 2.2
e|-0-0-----|
B|-2-2-2-2-|
G|-2-2-2-2-|
D|-----2-2-|
A|-0-0-0-0-|
E|---------|
ii)Oh take me take me

e|-----4-4---------|
B|-6-6-6-6-2-2-2-2-|
G|-4-4-4-4-2-2-2-2-|
D|-6-6-----4-3-2-2-|
A|-----4-4---------|
E|-4-4-----2-2-2-2-|
ii)Take me I'm your play thing now

e|-2-2-0-0-|
B|-3-3-2-2-|
G|-2-2-2-2-|
D|-0-0-----|
A|-----0-0-|
E|---------|
ii)You make my life worthwhile

e|-2-2-0-0-|
B|-3-3-2-2-|
G|-2-2-2-2-|
D|-0-0-----|
A|-----0-0-|
E|---------|
ii)With the slightest smile

e|---------|
B|-4-4-4-4-|
G|-2-2-2-2-|
D|-4-4-4-4-|
A|-2-2-2-2-|
E|---------|
ii)Or destroy me with a barely

e|-0-0-0-0-|
B|---------|
G|-1-2-3-4-|
D|-2-4-5-6-|
A|---------|
E|-0-0-0-0-|
ii)Perceptible whisper

e|-0-0-----|
B|-2-2-6-6-|
G|-2-2-4-4-|
D|-----6-6-|
A|-0-0-4-4-|
E|---------|
ii)Gently take me

e|-2-2-1-1-|
B|-3-3-3-3-|
G|-2-2-2-2-|
D|-0-0-0-0-|
A|---------|
E|---------|
ii)Remember I'll be dreaming 

e|-0-0-----|
B|-2-2-4-3-|
G|-2-2-2-1-|
D|-----3-2-|
A|-0-0-0---|
E|-------0-|
ii)Of my baby at the Dreamer's

e|----------0---------0-|
B|-2-2-----0-0-------0--|
G|-2-2----1---1-----1---|
D|-2-2---0-----0---0----|
A|-0-0--0-------0-0-----|
E|-----0---------0------|
ii)Ball


e|-0-0-----|
B|-2-2-6-6-|
G|-2-2-4-4-|
D|-----6-6-|
A|-0-0-4-4-|
E|---------|
ii)Take me hold me

e|-2-2-1-1-|
B|-3-3-3-3-|
G|-2-2-2-2-|
D|-0-0-0-0-|
A|---------|
E|---------|
ii)Remember what you told me that you'ld

e|-0-0-----|
B|-2-2-4-3-|
G|-2-2-2-1-|
D|-----3-2-|
A|-0-0-0---|
E|-------0-|
ii)Meet me at the Dreamer's

e|----------0---------0-|
B|-2-2-----0-0-------0--|
G|-2-2----1---1-----1---|
D|-2-2---0-----0---0----|
A|-0-0--0-------0-0-----|
E|-----0---------0------|
ii)Ball...      I'll

e|-----------0-|
B|-2-4-3----2--|
G|-2-2-1---2---|
D|-2-3-2--2----|
A|-0-0---0-----|
E|-----0-------|
ii)Meet you at the Dreamer's Ball
comments
We did not receive enough feedback on this tab! Please rate:
print report bad tab
1 2 3 4 5
I want to post or [tab]
guest
You may want to rate the tab now too:
select rating
Please do not post tabs as comments. Select "correction" instead!