Oops, an error
Loading. Please wait.

Fat Bottomed Girls bass

version 3
version 3

Whole song

Interactive

by Queen
4,847 views 12 this week
no commentswrite comment
1 2 3 4 5
x 4
add to favorites
×
Save as Personal and add changes to this tab that will be seen only by you. Learn more ›
×
You can save this tab as Personal to edit and correct it or add notes. All changes will be seen only by you. Learn more »
launch autoscroll
font size
0
reset
guitar tuner
backing track
0:00
0:00
edit
Autoscroll
slow
fast
+/-
esc
set tempo
stop
Author
Difficulty
Fat Bottom Girls
This song by Queen was originally released as a B side to Bicycle
Race in 1978 reaching number 11 in UK charts. Bassist John Deacon
Tab by bass50611. Other tabs think bass comes in on 2nd Verse but to
me bass slides in on third verse (2nd Verse is just kick drum and
guitar). I also dont think, that on the original, the E string is NOT
detuned to D. This is an easy simplified version of the original
Any comments its bass254@btinternet.com  Great song

Verse 1:
G|--------------------------|
D|---No Bass----------------|
A|------------Vocals Only---|
E|--------------------------|

Verse 2:
G|----------------------------------------|
D|---No Bass------------------------------|
A|-----------Vocals, Kick Drum & Guitar---|
E|----------------------------------------|

Verse 3:
G|--------------------------------------------------------------------------|
D|--------------------------------------------------------------------------|
A|-12\5-5-5/12-12\5-5-5--3-2-5-5-5-5\0-0-0-12\5-5-5--------10\5-5------12\5-|
E|-------------------------------------------------10\3-3-3------10\5-5-----|

Chorus:
G|----------------------------------------------------------------------|
D|----------------------------------------------------------------------|
A|-5-5-5-5---3-3-2-2-3---5-5-5-5---3-3------5-5-5-5---------5-5-----5-5-|
E|------------------------------------5-3-2---------3-3-3-3-----5-5-----|
                          2nd Time:
G|--------------------|  |----------------|
D|--------------------|  |----------------|
A|----5-5-----5-5-5-5-|  |-----5-5------5-|
E|-3------5-5---------|  |-3-3-----5-5----|

Repeat Verse:

Repeat Chorus:

Outro:
As far as I can make out Mr Deacon ad libs around the D putting various bass runs to 
suit Mr Mays guitar lead.
Suggest correction
Creating personal tab
Creating personal tab
You can edit any tab online and save it as your Personal.

You can edit, replace or remove any tab part or add personal notes – all changes will be seen only by you.

Personal tabs can be accessed anytime from any device, even offline.
Learn more »
comments
print report bad tab
guest
You may want to rate the tab now too:
select rating
Wanna post a correction for this tab? Suggest correction