Oops, an error
Loading. Please wait.

Good Old Fashioned Lover Boy Tab

version 2
version 2

Solo

Whole song

Interactive

25 views 3 this week
no commentswrite comment
1 2 3 4 5
3 more votes to show rating
add to favorites
launch autoscroll
font size
0
reset
how to read this tab
guitar tuner
Autoscroll
slow
fast
+/-
esc
set tempo
stop
Help us to improve Ultimate-Guitar.com Take our survey!
×
Author
Top of the Pops, 1977 version.

1:55

e|-----------------------------------------------------------------------------------------------|
B|-------------------------------------------------------------------15-16-16--16----------------|
G|-----------------------15b17--17r15-13-15-13-----------------15-17-----------------------------|
D|---------------------------------------------15-13v----13/17-----------------------------------|
A|------------------13---------------------------------------------------------------------------|
E|-6/11-x-13b15-x-11-----------------------------------------------------------------------------|

e|-------------------------------------------15-16-18-20-20--20v---------------------------------|
B|-18b20r18b20r18-16-15-16-18-------15-16-18----------------------------------18-16-15-16v-------|
G|----------------------------15-17----------------------------------------16--------------------|
D|----------------------------------------------------------------------17-----------------------|
A|--------------------------------------------------------------------x--------------------------|
E|------------------------------------------------------------------x----------------------------|

e|---------------------------------------------------------------------------------17b19--19r17v-|
B|-20-----20------20------20-------------------------18b20--20r18----------15--16----------------|
G|-----------------------------------------------17----------------15--17------------------------|
D|----17------17------17------17v----15--17--18--------------------------------------------------|
A|-----------------------------------------------------------------------------------------------|
E|-----------------------------------------------------------------------------------------------|

e|-------------------16--------------------16----------------------------------------------------|
B|-18b20r18--16--18------19b20b19--16--18------20v----20\18-16-----------------------------------|
G|-------------------------------------------------------------17--15v\--------------------------|
D|-----------------------------------------------------------------------------------------------|
A|-----------------------------------------------------------------------------------------------|
E|-----------------------------------------------------------------------------------------------|


************************************

| x   Dead note
| r   Release
| b   Bend
| /   Slide up
| \   Slide down
| v   Vibrato

************************************
Suggest correction
Give kudos to tab author, rate the tab!
1 2 3 4 5
comments
print report bad tab
guest
You may want to rate the tab now too:
select rating
Wanna post a correction for this tab? Suggest correction