Oops, an error
Loading. Please wait.

Hammer To Fall tab

version 1
version 1

Whole song

Interactive

by Queen
44,804 views 93 this week
1 commentread comment
1 2 3 4 5
x 7
add to favorites
×
Save as Personal and add changes to this tab that will be seen only by you. Learn more ›
×
You can save this tab as Personal to edit and correct it or add notes. All changes will be seen only by you. Learn more »
launch autoscroll
font size
0
reset
how to read this tab
guitar tuner
backing track
0:00
0:00
edit
Autoscroll
slow
fast
+/-
esc
set tempo
stop
Author
-------------------------------------------------------------------------------
                             HAMMER TO FALL - Queen
-------------------------------------------------------------------------------

Tuning: Standard 

Sorry does not include solo.

Please rate and comment!


[Intro/Verse.] 
     ^          ^          ^         ^
e|-------------------------------------------|
B|-2-2-2---3--2-2-2--3---2-2-2--3--5-5-5--2--|
G|-2-2-2---2--2-2-2--2---2-2-2--2--4-4-4--2--|
D|-2-2-2---4--2-2-2--4---2-2-2--4--6-6-6--2--|  x However many times
A|-------------------------------------------|
E|-------------------------------------------|

[Chorus]

e|-----------------------------|
B|-----------------------------|
G|-9-9-7-2---2-2-2-2-2-----2---|
D|-7-6-4-2---2-2-2-2-0-----2---|
A|-0-0-0-0---0-0-0-0---4-0-0---|
E|-----------------------------|

Do verse then chorus

Then do verse riff once then on to Bridge:

e|------------------------------------------------------------|
B|------------------------------------------------------------|
G|------------------------------------------------------------|
D|----------------------------------------------------7-----7-|
A|-2-2-2-2-2-2-2-2-4-4-4-4-4-4-4-4-7-7-7-7-7-7-7-7-7--5-7-5-5-|
E|-0-0-0-0-0-0-0-0-2-2-2-2-2-2-2-2-4-4-4-4-4-4-4-4-5----5-3---|

e|------------------------------------------------------------|
B|------------------------------------------------------------|
G|------------------------------------------------------------|
D|----------------------------------------------------7-9-----|
A|-2-2-2-2-2-2-2-2-4-4-4-4-4-4-4-4-7-7-7-7-7-7-7-7-7--5-7-----|
E|-0-0-0-0-0-0-0-0-2-2-2-2-2-2-2-2-4-4-4-4-4-4-4-4-5----------|

e|----------------------------------------------------|
B|----------------------------------------------------|
G|----------------------------------------------------|
D|----------------------------------------------------|
A|-2-2-2-2-2-2-2-2-4-4-4-4-4-4-4-4-7-7-7-7-7-7-7-7-7--|  
E|-0-0-0-0-0-0-0-0-2-2-2-2-2-2-2-2-4-4-4-4-4-4-4-4-5--|

Straight after bridge (sorry I don't know the solo).
Play chorus bit once then onto:

e|----------------------------------------------------|
B|----------------------------------------------------|
G|-9-9-7-2---2-2-2-2--2-----2--2-----2--2----2-----2--|
D|-7-6-4-2---2-2-2-2--0-----2--0-----2--0----0-----0--|
A|-0-0-0-0---0-0-0-0----4-0-0----4-0-0---4-0---4-0----|
E|----------------------------------------------------|
In the next verse you don't have to play anything but if you want you can play this:
(heavily palm-muted)
e|------------|
B|-2-2-2------|
G|-2-2-2------|
D|-2-2-2------|   x However many times
A|------------|
E|------------|

Chorus, Intro riff until finished. :)


*****************************************

| /  slide up
| \  slide down
| h  hammer-on
| p  pull-off
| ~  vibrato
| +  harmonic
| x  Mute note

*****************************************
Suggest correction
Creating personal tab
Creating personal tab
You can edit any tab online and save it as your Personal.

You can edit, replace or remove any tab part or add personal notes – all changes will be seen only by you.

Personal tabs can be accessed anytime from any device, even offline.
Learn more »
comments
print report bad tab
1 comment total.
0 reply
cb.bolton123 10 Jun 01, 2013 11:06 AM

The intro/verse i beleive is like this:
e|----------------------------------------5--|
B|-2-2-2---3--2-2-2--3---2-2-2--3--5-5-5--5--|
G|-2-2-2---2--2-2-2--2---2-2-2--2--4-4-4--6--|
D|-2-2-2---4--2-2-2--4---2-2-2--4--6-6-6--7--|
A|-------------------------------------------|
E|-------------------------------------------|

guest
You may want to rate the tab now too:
select rating
Wanna post a correction for this tab? Suggest correction