Oops, an error
Loading. Please wait.

I Want It All bass

version 2
version 2

Whole song

by Queen
124 views 18 this week
no commentswrite comment
1 2 3 4 5
3 more votes to show rating
add to favorites
×
Save as Personal and add changes to this tab that will be seen only by you. Learn more ›
×
You can save this tab as Personal to edit and correct it or add notes. All changes will be seen only by you. Learn more »
launch autoscroll
font size
0
reset
guitar tuner
backing track
0:00
0:00
edit
Autoscroll
slow
fast
+/-
esc
set tempo
stop
Author
Difficulty
I Want It All by Queen
From the album The Miracle (1989)
Written by Brian May (credited to Queen)
All rights belong to their respective owners

Transcribed by Jaakko Karppinen


I have based this tab on the bass track you can find in Youtube, so it should be pretty much 100% correct.
I'm not 100% sure about the positions, but as always, it's a matter of personal preference.

Isolated Bass Track: https://www.youtube.com/watch?v=B8_j6qbdpms


[Intro]
(rest for one bar)

G|------------------------------------------------------------------|
D|------------------------------------------------------------------|
A|------------------------------------------------------------------|
E|---------------------------------------------5--------------------|
   1   +   2   +   3   +   4   +   1   +   2   +   3   +   4   +   

G|------------------------------------------------------------------|
D|------------------------------------------------------------------|
A|-------.----------------------------------------------------------|
E|-7-----5-----7---7---7---7---7-5-3-----2-----3---3---3---3---3-3--|
   1   +   2   +   3   +   4   +   1   +   2   +   3   +   4   +   

G|------------------------------------------------------------------|
D|------------------------------------------------------------------|
A|---------------------------------2-----2-----0-----------14-\-----|
E|-5-----3-----5---5---5---5---5-5----------------------------------|
   1   +   2   +   3   +   4   +   1   +   2   +   3   +   4   +   


[Verse 1]
G|------------------------------------------------------------------|
D|------------------------------------------------------------------|
A|-------------.----------------------------------------------------|
E|-7-----------7---7-----------7p5-3-----2-----3--------------------|
   1   +   2   +   3   +   4   +   1   +   2   +   3   +   4   +   

G|------------------------------------------------------------------|
D|------------------------------------------------------------------|
A|-----------------------------5-4----------------------------------|
E|-5-----3-----5-------------------7-----7-----5--------------------|
   1   +   2   +   3   +   4   +   1   +   2   +   3   +   4   +   

G|------------------------------------------------------------------|
D|------------------------------------------------------------------|
A|------------------------------------------------------------------|
E|-7-----5-----7---------------7p5-3-----2-----3---------------2-3--|
   1   +   2   +   3   +   4   +   1   +   2   +   3   +   4   +   

G|------------------------------------------------------------------|
D|------------------------------------------------------------------|
A|---------------------------------2-----2-----2-------0---0---2-/--|
E|-5-----3-----5---5---5---5---5-x----------------------------------|
   1   +   2   +   3   +   4   +   1   +   2   +   3   +   4   +   


[Pre-Chorus 1]
G|------------------------------------------------------------------|
D|---------.-------.------------------------------------------------|
A|-5-------5-------5-----------------------.------------------------|
E|-------------5-7-----3---3---3---5-------5---2-3-5---3---3---3----|
   1   +   2   +   3   +   4   +   1   +   2   +   3   +   4   +   

G|------------------------------------------------------------------|
D|------------------------------------------------------------------|
A|---------.--------------------------------------------------------|
E|-5-------5---2-3-5---2h3-5---5---3--------(3)/---R---3-5-5---5----|
   1   +   2   +   3   +   4   +   1   +   2   +   3   +   4   +   


[Chorus 1]
G|------------------------------------------------------------------|
D|------------------------------------------------------------------|
A|------------------------------------------------------------------|
E|-7-----5-----7-----------R---7p5-3-----2-----3-------3---3---3-3--|
   1   +   2   +   3   +   4   +   1   +   2   +   3   +   4   +   

G|------------------------------------------------------------------|
D|------------------------------------------------------------------|
A|-----------------------------5-4-2-----2-----0-----------14-\-----|
E|-5-----3-----5---5---5---5----------------------------------------|
   1   +   2   +   3   +   4   +   1   +   2   +   3   +   4   +   

G|------------------------------------------------------------------|
D|------------------------------------------------------------------|
A|------------------------------------------------------------------|
E|-7-----5-----7-------7---7---7-5-3-----2-----3---3---3---3---3-3--|
   1   +   2   +   3   +   4   +   1   +   2   +   3   +   4   +   

G|------------------------------------------------------------------|
D|------------------------------------------------------------------|
A|---------------------------------2-----2-----0--------------------|
E|-5-----3-----5---5---5---5---5-5----------------------------------|
   1   +   2   +   3   +   4   +   1   +   2   +   3   +   4   +   


[Verse 2]
G|------------------------------------------------------------------|
D|-----.-----------.------------------------------------------------|
A|-2---2-----------2-------------------.-----------.----------------|
E|---------------------------------3---3-----------3----------------|
   1   +   2   +   3   +   4   +   1   +   2   +   3   +   4   +   

G|------------------------------------------------------------------|
D|-------------------------------------.----------------------------|
A|-----.-----------.---------------2---2----------------------------|
E|-5---5-----------5------------------------------------------------|
   1   +   2   +   3   +   4   +   1   +   2   +   3   +   4   +   

G|------------------------------------------------------------------|
D|-----.-----------.------------------------------------------------|
A|-2---2-----------2-------------------.-----------.----------------|
E|---------------------------------3---3-----------3----------------|
   1   +   2   +   3   +   4   +   1   +   2   +   3   +   4   +   

G|------------------------------------------------------------------|
D|-------------------------------------.----------------------------|
A|-----.-----------.---------------2---2-------------------2---/----|
E|-5---5-----------5------------------------------------------------|
   1   +   2   +   3   +   4   +   1   +   2   +   3   +   4   +   


[Pre-Chorus 2]
G|------------------------------------------------------------------|
D|------------------------------------------------------------------|
A|-5-------5-------5------------------------------------------------|
E|-------------5-7-----3---3---3---5-------5-------5---3---3---3----|
   1   +   2   +   3   +   4   +   1   +   2   +   3   +   4   +   

G|------------------------------------------------------------------|
D|------------------------------------------------------------------|
A|------------------------------------------------------------------|
E|-5-------5-------5-------5/10\---3-----------3---3-------5-5-5----|
   1   +   2   +   3   +   4   +   1   +   2   +   3   +   4   +   


[Chorus 2]
G|------------------------------------------------------------------|
D|------------------------------------------------------------------|
A|------------------------------------------------------------------|
E|-7-----5-----7---7---7---7---7-5-3-----2-----3---3---3---3---3-3--|
   1   +   2   +   3   +   4   +   1   +   2   +   3   +   4   +   

G|------------------------------------------------------------------|
D|------------------------------------------------------------------|
A|---------------------------------2-----2-----0--------------------|
E|-5-----3-----5---5---5---5/10\------------------------------------|
   1   +   2   +   3   +   4   +   1   +   2   +   3   +   4   +   

G|------------------------------------------------------------------|
D|------------------------------------------------------------------|
A|------------------------------------------------------------------|
E|-7-----5-----7---7---7---7---7-5-3-----2-----3---3---3---3---3----|
   1   +   2   +   3   +   4   +   1   +   2   +   3   +   4   +   

G|------------------------------------------------------------------|
D|------------------------------------------------------------------|
A|---------------------------------2--------------------------------|
E|-5-----3-----5---5---5---5/10\------------------------------------|
   1   +   2   +   3   +   4   +   1   +   2   +   3   +   4   +   


[Interlude]
(rest for one bar)

G||----------------------------------------------------------------------||
D||-o------------------------------------------------------------------o-||
A||-o------------------------------------------------------------------o-||
E||---7------------------------------------------------------------------||
      1   +   2   +   3   +   4   +   1   +   2   +   3   +   4   +   

G|------------------------------------------------------------------|
D|------------------------------------------------------------------|
A|------------------------------------------------------------------|
E|-7--------------------------------------(7)--\---\---R------------|
   1   +   2   +   3   +   4   +   1   +   2   +   3   +   4   +   


[Guitar Solo]
G|------------------------------------------------------------------|
D|------------------------------------------------------------------|
A|------------------------------------------------------------------|
E|-7---7---7---7---7---7---7---7---3---3---3---3---3---3---3---3----|
   1   +   2   +   3   +   4   +   1   +   2   +   3   +   4   +   

G|------------------------------------------------------------------|
D|------------------------------------------------------------------|
A|------------------------------------------------------------------|
E|-5---5---5---5---5---5---5---5/--0---0---0---0---0---0---0---0----|
   1   +   2   +   3   +   4   +   1   +   2   +   3   +   4   +   

G|------------------------------------------------------------------|
D|------------------------------------------------------------------|
A|---------------------------------------------------------5--------|
E|-7---7---7---7---7---7---7---7---3---3---3---3---3---7-------7----|
   1   +   2   +   3   +   4   +   1   +   2   +   3   +   4   +   

G|------------------------------------------------------------------|
D|------------------------------------------------------------------|
A|-----4---7---4-------4---7---4---7---5---4------------------------|
E|-5---------------5---------------------------7---0---2---3---5----|
   1   +   2   +   3   +   4   +   1   +   2   +   3   +   4   +   

G|------------------------------------------------------------------|
D|------------------------------------------------------------------|
A|-----------------------------------------------------2---3---5----|
E|-7---7---7---7---7---7---7---7---3---3---3---3---3----------------|
   1   +   2   +   3   +   4   +   1   +   2   +   3   +   4   +   

G|------------------------------------------------------------------|
D|------------------------------------------------------------------|
A|---------------------------------7---7---7---7---7---5---4--------|
E|-5---5---5---5---5---5---5---5-------------------------------7----|
   1   +   2   +   3   +   4   +   1   +   2   +   3   +   4   +   

G|------------------------------------------------------------------|
D|------------------------------------------------------------------|
A|---------------------------------------------------------5--------|
E|-7---7---7---7---7---7---7---7---3---3---3---3---3---7-------7----|
   1   +   2   +   3   +   4   +   1   +   2   +   3   +   4   +   

G|------------------------------------------------------------------|
D|-------------4---7---4--------------------------------------------|
A|-----4---7---------------7---4---.------.------.------.-----------|
E|-5-----------------------------x-3------2------3------2------3----|
   1   +   2   +   3   +   4   +   1   +   2   +   3   +   4   + 

G|--------------------------------------------------|
D|--------------------------------------------------|
A|--------------------------------------------------|
E|--------------------------------------------------|
   1   +   2   +   3   +   4   +   5   +   6   +   


[Pre-Chorus 3]
G|------------------------------------------------------------------|
D|------------------------------------------------------------------|
A|------------------------------------------------------------------|
E|-2-------2-------2---3---3---3---5-------5-------5---3---3---3----|
   1   +   2   +   3   +   4   +   1   +   2   +   3   +   4   +   

G|------------------------------------------------------------------|
D|------------------------------------------------------------------|
A|------------------------------------------------------------------|
E|-5-------5-------5-------5---5-5-3---------------5/10\---5/10\-R--|
   1   +   2   +   3   +   4   +   1   +   2   +   3   +   4   +   


[Chorus 3]
(rest for one bar)

G|------------------------------------------------------------------|
D|------------------------------------------------------------------|
A|------------------------------------------------------------------|
E|---------------------------------------------5--------------------|
   1   +   2   +   3   +   4   +   1   +   2   +   3   +   4   +   

G|------------------------------------------------------------------|
D|------------------------------------------------------------------|
A|------------------------------------------------------------------|
E|-7-----5-----7---------------7p5-3-----2-----3-------3---3---3-3--|
   1   +   2   +   3   +   4   +   1   +   2   +   3   +   4   +   

G|------------------------------------------------------------------|
D|------------------------------------------------------------------|
A|-----------------------------5-4----------------------------------|
E|-5-----3-----5---5---5---5-------7-----7-----5--------------------|
   1   +   2   +   3   +   4   +   1   +   2   +   3   +   4   +   

G|------------------------------------------------------------------|
D|------------------------------------------------------------------|
A|------------------------------------------------------------------|
E|-7-----5-----7-------7---7---7p5-3-----2-----3---3---3---3---2-3--|
   1   +   2   +   3   +   4   +   1   +   2   +   3   +   4   +   

G|------------------------------------------------------------------|
D|------------------------------------------------------------------|
A|------------------------------------------------------------------|
E|-5-----3-----5---5---5---5---5---7-----7-----5-----------R--------|
   1   +   2   +   3   +   4   +   1   +   2   +   3   +   4   +   

[Outro]
G|------------------------------------------------------------------|
D|------------------------------------------------------------------|
A|-----------------.---------------.--------------------------------|
E|-----------------3---------------3-------------------3------------|
   1   +   2   +   3   +   4   +   1   +   2   +   3   +   4   +   

G||----------------------------------------------------------------------||
D||-o------------------------------------------------------------------o-||
A||-o------------------------------------------------------------------o-||
E||--(3)--/---/---15----(15)--\---\---3---/---/---15----(15)--\---\------||



************************************

 R = rest
 h = hammer-on
 p = pull-off
 . = accent note
 \ = slide down
 / = slide up

************************************

            
            
Suggest correction
Creating personal tab
Creating personal tab
You can edit any tab online and save it as your Personal.

You can edit, replace or remove any tab part or add personal notes – all changes will be seen only by you.

Personal tabs can be accessed anytime from any device, even offline.
Learn more »
Give kudos to tab author, rate the tab!
1 2 3 4 5
comments
print report bad tab
guest
You may want to rate the tab now too:
select rating
Wanna post a correction for this tab? Suggest correction