Oops, an error
Loading. Please wait.

Is This The World We Created tab

version 3
version 3

Whole song

Interactive

by Queen
163 views 9 this week
1 commentread comment
1 2 3 4 5
1 last vote to show rating
add to favorites
×
Save as Personal and add changes to this tab that will be seen only by you. Learn more ›
×
You can save this tab as Personal to edit and correct it or add notes. All changes will be seen only by you. Learn more »
launch autoscroll
font size
0
reset
how to read this tab
guitar tuner
edit
Autoscroll
slow
fast
+/-
esc
set tempo
stop
About this tab version
Arrangement for 6 string guitar. Was this info helpful? Yes No
Is This The World We Created...?

Tuning: Half step down

Intro:

[Fade in]            Pause
|--5-----5-----5-----5------|
|--7-----7-----7-----7------|
|--7-----7-----7-----7------|
|-----0*----0*----0*----0*--|
|---------------------------|
|---------------------------|


|-5-----5-----5-----5-----5-----5-----3-----3-----1-----1--------0--------|
|-7-----7-----5-----7-----3-----3-----3-----3-----3-----3-----6-----------|
|-7-----7-----6-----6-----5-----5-----4-----4-----3-----3--2--0-----7-----|
|----0*----0*----0*----0*----0*----0*----0*----0--3-----------8--------8--|
|-------------------------------------------------1--1-------88-----------|
|-------------------------------------------------------------------------|

|---------------------7-/-10---|
|------3-/-5-/-7-/-10----------|
|--2---------------------------|
|--4---------------------------|
|----5-------------------------|
|------------------------------|


Verse:
  *           *          *         *    *           *         *
|------------------------9------0--7--|-----------------------9----0--7---|
|----7--7--7--7--7------10---------5--|----7--7--7--7--7-----10-------5---|
|----7--7--7--7--7---------11------7--|----7--7--7--7--7--------11----7---|
|-9--------------------------------5--|-9-----------------------------5---|
|-------------------------------------|-----------------------------------|
|-------------------------------------|-----------------------------------|
    


  *           *           *            *
|--------------------------------5-----3---|
|----3--3--3--3-----3----------------------|
|----2--2--2--2-----2---->4---------4*-----|
|----5--5--5--4----------<2----------------|
|-0*-------------0*------------------------|
|------------------------------------------|

  *           *           *        *          *
|----3-----0----------------------------------------------3-----|
|----------------2----------------------3--------------3--------|
|-3--------------------4----------------4--------0--4-----------|
|-4-----4*----4-----4--5-------------------4--2-------------(0*)|
|----------------------5----------------------------------------|
|---------------------------------------------------------------|



Chorus:
[Strummed]
   *  .  .  .  .  .  .  .  *  .  .  .  .  .  .
|--5~~~~~~~-5~~~~-5~~-~~~--5--5--5--3~~~~~~~~~-|
|--7~~~~~~~-7~~~~-7~~~~(0)-5--7--5--3~~~~~~~~~-|
|--7~~~~~~~-6~~~~-7~~~~~~~-6--7--6--4~~~~~~~~~-|
|--0~~~~~~~-0~~~~-0~~~~~~~-0--0--0--0~~~~~~~~~-|
|----------------------------------------------|
|----------------------------------------------|

Bm(sus2), F#m,  A

Intro figure with strummed chords


Verse
  *           *          *           *            *           *           *           *
|------------------------9------0---------------|----------------------7--9--------7---|
|----7--7--7--7--7------10---------5-------5----|>7-----7-----7--7-----------7-----5---|
|----7--7--7--7--7------11--11-----7----------7-|<7-----7-----7--7--------------9--7---|
|-9-------------------------------------5-------|>9--9-----9--------9--------------5---|
|------------------------0*--------7------------|--------------------------------------|
|-----------------------------------------------|--------------------------------------|


  *           *            *          *
|--------------------------5----------3----|
|----3--3--3--3----------------------------|
|-------------2-----2*-----------4-4*------|
|----5--5--5--4------------2---------------|
|-0*--------------------------0------------|
|------------------------------------------|


  *           *           *         *          *
|-2--3-----0-----------------------------------------------------|
|----------------2------------------3-----------------0-/-<12>---|
|----------------------4---------------4-----------0----/-<12>---|
|-4-----4*----4-----4--5----------5-------5--4------------<12>---|
|----------------------5-----------------------------------------|
|-----------------------------------------------0*---------------|

chorus (as before)




Proposed intro for six string guitar:


|-5-----5-----5-----5-----5-----5-----3-----3----|
|-7-----7--------3-----3-----3-----3-----3-----3-|
|-7--7--7--7--6-----6-----5-----5-----4-----4----|
|-0-----------0-----------0-----------0----------|
|------------------------------------------------|
|------------------------------------------------|

            
            
Suggest correction
Creating personal tab
Creating personal tab
You can edit any tab online and save it as your Personal.

You can edit, replace or remove any tab part or add personal notes – all changes will be seen only by you.

Personal tabs can be accessed anytime from any device, even offline.
Learn more »
Give kudos to tab author, rate the tab!
1 2 3 4 5
comments
print report bad tab
1 comment total.
0 reply
TheJayy 10 Sep 11, 2017 10:07 AM

Whooooooooooooo Best SONG EVERRRRR

guest
You may want to rate the tab now too:
select rating
Wanna post a correction for this tab? Suggest correction