Oops, an error
Loading. Please wait.

Killer Queen tab

version 2
version 2

Whole song

Interactive

by Queen
16,016 views 9 this week
3 commentsread comments
1 2 3 4 5
x 9
add to favorites
×
Save as Personal and add changes to this tab that will be seen only by you. Learn more ›
×
You can save this tab as Personal to edit and correct it or add notes. All changes will be seen only by you. Learn more »
launch autoscroll
font size
0
reset
how to read this tab
guitar tuner
backing track
0:00
0:00
edit
Autoscroll
slow
fast
+/-
esc
set tempo
stop
Author
Difficulty
the other killer queen tab is soooo complicated and confusing, at least for me, so i 
it and adede the stuff it was missing, corrected some stuff, fixed up, so here it is, in 
format=)

Verse
|---------------------------------------------------------------------|
|---------------------------------------------------------------------|
|-----------12'--12--10'--10-\8'--8-\5'--5-\4'--4-\3'--3--3'--12p10---|
|---------------------------------------------------------------------|
|-10p8p3--------------------------------------------------------------|
|---------------------------------------------------------------------|

 Pre-Chorus
|---------------------------------------------|
|---------------------------------------------|
|---------------------------------------------|
|----------7------7---------------------------|
|--------------5--------5------10-------------|
|2h3h4h5------------3------8------------------|

 Chorus
|---------------------------------------------------------|
|---------------------------------------------------------|
|---------------------------------------------------------|
|-------------7------------7----------5-------------5\3---|
|------7---5--------7---5--------5--3-------5-------------|
|---5------------5------------3----------3----------------|

 Extro-1
|------------------------------5--6----5-----------------3-------------|
|-8b10---b10----8--6-5---------------8----6-5------8---6----4p3--------|
|------------------------7v-------------------7-----------------5------|
|----------------------------------------------------------------------|
|----------------------------------------------------------------------|
|----------------------------------------------------------------------|

 Extro-cont.- not sure
|-3------------------------------------------|
|---4-6-3-4-3--------------------------------|
|-------------5\2----------------------------|
|-----------------3-3--13-13--3-3-13-13-3-h3-|
|----------------------13-13------13-13------|
|--------------------------------------------|

Verse-its a litle different
|---------------------------------------------------------------------|
|---------------------------------------------------------------------|
|-----------12'--12--10'--10-\8'--8-\5'--5-\4'--4-\3'--3--3'--12p10---|
|---------------------------------------------------------------------|
|------3--------------------------------------------------------------|
|---------------------------------------------------------------------|

 Pre-Chorus
|---------------------------------------------|
|---------------------------------------------|
|---------------------------------------------|
|----------7------7---------------------------|
|--------------5--------5------10-------------|
|2h3h4h5------------3------8------------------|

Chorus
|---------------------------------------------------------|
|---------------------------------------------------------|
|---------------------------------------------------------|
|-------------7------------7----------5-------------5\3---|
|------7---5--------7---5--------5--3-------5-------------|
|---5------------5------------3----------3----------------|


Somethings missing here-email me at Kaveman@sbcglobal.net if u hav corections


solo
|------------------------13---13-10h11p10-------------------------------|
|-13---13--11-13r11-----------------------13------13---13--12--13-11----|
|-------------------12-------------------------12--------------------12-|
|-----------------------------------------------------------------------|
|-----------------------------------------------------------------------|
|-----------------------------------------------------------------------|

|--------------------------------------------------------------15-----|
|----15---15-12-13p12-15p13-16p15-18p16-18-20----18---16---18-----16--|
|---------------------------------------------------------------------|
|---------------------------------------------------------------------|
|---------------------------------------------------------------------|
|---------------------------------------------------------------------|

|-------------------------------------------------------|
|-20-18--p16------18--------------16-18-20---20-20-18---|
|------------16-------16\15---17------------------------|
|-------------------------------------------------------|
|-------------------------------------------------------|
|-------------------------------------------------------|

|--------18---------------------|
|--18-20-----20----20---20-21---|
|-------------------------------|
|-------------------------------|
|-------------------------------|
|-------------------------------|

 Extro-2
|----------------------------------------------------------------------|
|-16---15-------14---16-13------14---------------------14-15---15--14--|
|-----------15----------------------12-11--11-12--14-------------------|
|----------------------------------------------------------------------|
|----------------------------------------------------------------------|
|----------------------------------------------------------------------|

|-------14---------------------|
|-14-15-----15---15---15-16----|
|------------------------------|
|------------------------------|
|------------------------------|
|------------------------------|


|----------------------------------------------------------------------------|
|------------13-------13--------------12-15--15--15----------16------13/15---|
|-15--15--15-----13-------13-13---13-------------------14/15----15--15-------|
|----------------------------------------------------------------------------|
|----------------------------------------------------------------------------|
|----------------------------------------------------------------------------|

 G Cm G Cm A# D# A# D# D

 Extro-3
|-------------|
|-------------|
|-17-15-------|
|-17-15-17----|
|-18-17-18&15-|
|-------------|

somthin else missing here, need corrections plz

Outro-this over this-------------------------|
|--------^---------------|-14b16-b16...|     |
|------------------------|-15b16-b16...|     |
|-10b12---10b12-10b12----|-14b16-b16...|     |
|-12b13---12b13-12b13----|-------------|     |
|-12b13---12b13-12b13----|-------------|     |
|------------------------|-------------|     |
                                             |
  left     right                             |
|-20r18-15---------...|                     ---|
|----------20r18-16...|                     ---|
|------------------...|------------------------|
|------------------..--------------------------|
|------------------..--------------------------|
|------------------..--------------------------|


so there it is, enjoy, all corrections, send to-Kaveman@sbcglobal.net-please rate this 
its my first one, if its good, ill keep on tabbing.

P.s=), can someone tab a good "if everyone cared"tab, by nickleback, ive been looking 
one for some time, thx

END
Suggest correction
Creating personal tab
Creating personal tab
You can edit any tab online and save it as your Personal.

You can edit, replace or remove any tab part or add personal notes – all changes will be seen only by you.

Personal tabs can be accessed anytime from any device, even offline.
Learn more »
comments
print report bad tab
3 comments total.
0 reply
RandyRIP 10 Aug 05, 2007 08:23 PM

It's off and out of whack man. At least it gives you the basic idea. 3 stars.

+1 reply
xSUNxOFxNOTHING 10 Jun 02, 2009 01:12 PM

pull off from 10 to 3?
wanna specify a tap?

0 reply
PookyTheNinja 10 Jul 20, 2009 02:50 PM

It sounds more like a slide down to 3.

guest
You may want to rate the tab now too:
select rating
Wanna post a correction for this tab? Suggest correction