Oops, an error
Loading. Please wait.

Love Of My Life Tab

version 2
67,713 views 51 this week
6 commentsread comments
1 2 3 4 5
x 13
add to favorites
launch autoscroll
font size
0
reset
how to read this tab
guitar tuner
×
Best way to learn
"Love Of My Life"
Autoscroll
slow
fast
+/-
esc
set tempo
stop
Author
Love of My Life

e|-----5--5--5--5--5--5--5--|-----7--7--7--7--7--7--7--|
B|-----6--6--6--6--6--6--6--|-----8--8--8--8--8--8--8--|
G|-----5--5--5--5--5--5--5--|-----7--7--7--7--7--7--7--|
D|--0-----------------------|--0-----------------------|
A|--------------------------|--------------------------|
E|--------------------------|--------------------------|

e|--2--------2------------|-----------2------------|--0-----0-----0-----0-----|
B|--3--2--3-------3-------|--3--2--3-------3----2--|--3-----3-----3-----3-----|
G|--2---------------------|--4---------------------|-----0-----0--------------|
D|--0---------------------|--4---------------------|--------------------------|
A|---------------------4--|--2---------------------|--------------------------|
E|------------------------|------------------------|--0--------------0-----0--|

e|--0-----0-----0-----0-----|--2--------2------------|-----------2------------|
B|--2-----3-----5-----2-----|--3--2--3-------3-------|--3--2--3-------3-------|
G|--------------0-----------|--2---------------------|--4---------------------|
D|--2-----4-----------2-----|--0---------------------|--4---------------------|
A|-----0-----0-----0-----0--|---------------------4--|--2------------------0--|
E|--------------------------|------------------------|------------------------|

e|---7-----0-----5-----------|--------------------0-----|
B|------3-----3-----3--5--3--|--0-----2-----3-----0-----|
G|*--------------------------|--1-----2-----4-----1-----|
D|*--------------------------|--------------------------|
A|---------------------------|--------------------------|
E|---3-----------2-----------|-----0-----0-----0-----0--|

e|--------0-----------0-----|--------2-----4-----2-----|
B|--------2-----------2-----|--------2-----2-----2-----|
G|-----2-----2-----2-----2--|-----2-----2-----2-----2--|
D|--------------------------|--------------------------|
A|--0-----------0-----------|--------------------------|
E|--------------------------|--2-----------------------|

e|--------2-----------2-----|--------------------0-----|--------0------------2--|
B|--------3-----------3-----|--0-----2-----3-----0-----|--------2--7----5-------|
G|-----4-----4-----4-----4--|--1-----2-----4-----1-----|-----2-----6----6-------|
D|--------------------------|--------------------------|-----------5----5-------|
A|--2-----------2-----------|--------------------------|--0---------------------|
E|--------------------------|-----0-----0-----0-----0--|------------------------|

e|--2--------2--------|--2--------2--------|-----------3----------2--|
B|--3--------3--------|--3--------2--------|--------0-------------3--|
G|--2--------2--------|--4--------2--------|-----0-------------2-----|
D|--0--------0--------|--4--------4--------|----------------0--------|
A|--------------------|--2--------4--------|-------------------------|
E|--------------------|-----------2--------|--3----------------------|

e|--3----2----2----|--------0-----0--------|--6--------|
B|--0----3----3----|--------3-----2--------|--6--------|
G|--0----2----4----|-----0-----0--0--------|--6--------|
D|--0----2----4----|--------------2--------|--6--------|
A|--2---------2----|--------------0--------|--6--------|
E|--3--------------|--0--------------------|--6--------|

e|--7-----9------7-----9------||--------2-----0-----2-----|--2----------------|
B|--8-----10-----8-----7------||--------3-----3-----3-----|--3----------------|
G|---------------------------*||-----2-----2-----2-----2--|--4----------------|
D|-----0------0-----0-----0--*||--0-----------------------|--4----------------|
A|----------------------------||--------------------------|--2----------------|
E|----------------------------||--------------------------|-------------------|

e|--2----------------|--------3-----3--------|--2-----3-----5-----5----|
B|--2----------------|--------0-----0--------|--3-----5-----7-----5----|
G|--2----------------|--0--0-----0--0--------|--------------------6----|
D|--4----------------|-----------------------|-----0-----0-----0--4----|
A|--4----------------|-----------------------|-------------------------|
E|--2----------------|--3--------------------|-------------------------|

e|--2----------------|--2----------------|---------------------|
B|--2----------------|--2----------------|--2--------2----0----|
G|--4----------------|--2----------------|--2--------2----2----|
D|--4----------------|--4----------------|--0--------0----0----|
A|--2----------------|--4----------------|--2--------2----2----|
E|-------------------|--2----------------|---------------------|

e|--0--------0--------|--0-----0-----0-----0-----|--2-----2-----2-----2-----|
B|--0--------3--------|--2-----3-----5-----2-----|--3-----3-----3-----3-----|
G|--0--------0--------|--------------0-----------|-----2-----2-----2-----2--|
D|--2--------2--------|--2-----4-----------2-----|--------------------------|
A|--2--------2--------|-----0-----0-----0-----0--|--------------------------|
E|--0--------0--------|--------------------------|--------------------------|

e|--2-----2-----|--2-----2-----0-----2-----|--0-----1-----3-----2-----|
B|--3-----3-----|--------------------------|--------------------------|
G|-----2-----2--|-----2-----2-----2-----2--|-----2-----2-----2-----2--|
D|--------------|--0-----------------0-----|--------0-----2-----0-----|
A|--------------|--------------4-----------|--4-----------------------|
E|--------------|--------------------------|--------------------------|

e|--0--------0--|--------5-----5-----------|--0----0--2--|
B|--------3-----|--2--------2-----2-----2--|--1----------|
G|-----2--------|--------------------2-----|--0----------|
D|--------------|-----2--------------------|-------------|
A|--4-----2-----|--0-----------------------|--0----------|
E|--------------|--------------------------|-------------|

e|--3-----------3-----------|--3-----7------------|--7-----9------7h-9---5-----|
B|-----0-----0--1--2-----2--|--0-----8------------|--8-----10-----8--10--7-----|
G|--------0-----0-----0-----|--0--0--7------------|----------------------------|
D|--------------2-----------|---------------------|-----0------0------------0--|
A|--------------------------|---------------------|----------------------------|
E|--3-----------------------|--3------------------|----------------------------|

e|--7-----0-----5-----0-----|--------------------0-----|
B|-----3-----3-----3-----3--|--0-----2-----3-----0-----|
G|--------------------------|--1-----2-----4-----0-----|
D|--------------------------|--------------------------|
A|--------------------------|--------------------------|
E|--3-----------2-----------|-----0-----0-----0-----0--|

e|--0-----0--0--0-----0-----|--2--------2--------|-----------3----------2--|
B|--2-----3-----5-----2-----|--3--------2--------|--------0-------------3--|
G|--------------0-----------|--4--------2--------|-----0-------------2-----|
D|--2-----4-----------2-----|--4--------4--------|----------------0--------|
A|-----0-----------0-----0--|--2--------4--------|-------------------------|
E|--------------------------|-----------2--------|--3----------------------|

e|--3----2----2----|--------0-----0--------|--------2-----2-----10----|
B|--0----3----3----|--------3-----2--------|--------3-----3-----7-----|
G|--0----2----4----|-----0-----0--0--------|-----2-----2-----2--7-----|
D|--0----0----4----|--------------2--------|--0-----------------0-----|
A|--2---------2----|--------------0--------|--------------------------|
E|--3--------------|--0--------------------|--------------------------|

e|--2--------2--------|--0--------3--------|--2--------2--------||
B|--3--------2--------|--3--------3--------|--3--------3--------||
G|--4--------2--------|--0-----------------|--2--------2--------||
D|--4--------4--------|--2--------5--------|--0--------0--------||
A|--2--------4--------|--2--------5--------|--------------------||
E|-----------2--------|--0--------3--------|--------------------||

************************************

| h  Hammer-on

************************************

==================================
by avi_gaf
Suggest correction
comments
print report bad tab
6 comments total. Showing first comments.
0 reply
Calibwam 142 Dec 10, 2007 07:25 AM

Beautiful!

0 reply
Strider7 318 Jun 05, 2008 04:00 PM

It can be a bit tough to follow, but its definetly accurate!

0 reply
southak 10 Oct 11, 2011 06:50 AM

Very nice indeed. I have heard this song more times that most people in here have had hot dinners, and it is a good transposition from a 12 to a 6 string guitar. Good job.

guest
You may want to rate the tab now too:
select rating
Wanna post a correction for this tab? Suggest correction