Oops, an error
Loading. Please wait.

Love Of My Life tab

version 5
by Queen
23,645 views 57 this week
2 commentsread comments
1 2 3 4 5
x 3
add to favorites
×
Save as Personal and add changes to this tab that will be seen only by you. Learn more ›
×
You can save this tab as Personal to edit and correct it or add notes. All changes will be seen only by you. Learn more »
launch autoscroll
font size
0
reset
how to read this tab
guitar tuner
edit
Autoscroll
slow
fast
+/-
esc
set tempo
stop
Author
- Artist: Queen
- Album: A Night At The Opera
- Song: Love Of My Life

Transcribed By FADETOBL4CK

You can watch Bryan May playing it here:

- http://www.youtube.com/watch?v=PDzXD2jga34

* Standard Tuning
* Use Fingers

      D                          Bm
e |-----------2--------------|-----------2----------------|
B |--^3--2--3----------3-----|--^3--2--3----------3-------|
G |--^2-------------2--------|--^4-------------------4----|
D |--^0----------------------|--^4-------------4----------|
A |--^0-------------------4--|--^2------------------------|
E |--------------------------|----------------------------|

     Em                       A
e |--^0--------0----------|--------------------------|
B |--^0------0-------3----|--^2-----3-----5-/-2-2----|
G |--^0----0-------0------|--^2--2-----2----/--------|
D |------2-------2--------|--^2-----4-----5-/-2-2----|
A |-----------------------|--^0----------------------|
E |--^0-------------------|--------------------------|

      D                        Bm
e |-----------2-------------|-----------2-------------------|
B |--^3--2--3---------------|--^3--2--3----------3-----3----|
G |--^2---------------------|--^4---------------------------|
D |--^0--------------0------|--^4-------------4-------------|
A |--^0----------------4----|--^2-------------------0-------|
E |-------------------------|-------------------------------|

      G              D                  E   Am6  E7   E9-
e |---------0--------------0-------|--------------------------|
B |--^3--3-----3----^3--3-----3----|--------------------------|
G |--^4-------------^2-------------|---^1---^2---^4---^7-0----|
D |--^5-------------^0-------------|---^2---^4---^6---^9------|
A |--------------------------------|---^2---^3---^5---^8------|
E |--^3-------------^2-------------|---^0---^0---^0---^0------|

      A
e |-----------0------------|-------------------------|
B |--^2--0----------- 0----|----------------2--------|
G |--^2-----2------2-------|------------2-------2----|
D |--^2--------------------|----------4---4---4------|
A |--^0--------------------|-------------------------|
E |------------------------|--4--2-------------------|

     Bm                           E   Am6  E7    E
e |-----------2---------------|-----------------------|
B |--^3--2--3---------3-------|-----------------------|
G |--^4------------------4----|--^1---^2---^4-/-^1----|
D |--^4------------4----------|--^2---^4---^6-/-^2----|
A |--^2-----------------------|--^2---^3---^5-/-^2----|
E |---------------------------|--^0---^0---^0-/-^0----|

      A
e |-----------0----3--3----------|----------2----------------|
B |--^2--0---------2--2--3--3----|-----3---------------------|
G |--^2-----2------2--2----------|--2-----2---2--------------|
D |--^2---------------------0----|-------------------0-------|
A |--^0--------------------------|----------------------4----|
E |------------------------------|---------------------------|

     Bm            F#m                G         G6
e |--------------------------------|---------------------------|
B |--^3--------3----^2--------2----|--^3--2------^0----3--3----|
G |--^4-----4-------^2-----2-------|--^4-----4---^4----2--2----|
D |--^4--4----------^4--4----------|--^5---------^5----0--0----|
A |--^2----------------------------|-------------------0-------|
E |-----------------^2-------------|--^3---------^3------------|

      G      D     Bm         Em          A
e |------------------------|--^0-----0---------------|
B |--^3-----^3-----3-------|--^0---------^2-----2----|
G |--^4-----^2--2-----4----|--^0---0-----^2---2------|
D |--^5--5--^0-------------|-----2-------^2-2--------|
A |---------^0-----2-------|-------------^0----------|
E |--^3--------------------|--^0---------------------|

e |-----------2---|
B |--------3------|
G |-----2---------|
D |--0------------|
A |---------------|
E |---------------|

            
            
Suggest correction
Creating personal tab
Creating personal tab
You can edit any tab online and save it as your Personal.

You can edit, replace or remove any tab part or add personal notes – all changes will be seen only by you.

Personal tabs can be accessed anytime from any device, even offline.
Learn more »
Give kudos to tab author, rate the tab!
1 2 3 4 5
comments
print report bad tab
2 comments total.
0 reply
griNyoff 51 Nov 20, 2010 02:38 AM

That's an awesome job! Thank you!

0 reply
physicalactio1 10 Jan 19, 2016 02:17 AM

Excellent. Thank you!

guest
You may want to rate the tab now too:
select rating
Wanna post a correction for this tab? Suggest correction