Oops, an error
Loading. Please wait.

Now Im Here Tab

version 1
version 1

Whole song

Interactive

by Queen
23,279 views 21 this week
no commentswrite comment
1 2 3 4 5
x 7
add to favorites
launch autoscroll
font size
0
reset
how to read this tab
guitar tuner
backing track
0:00
0:00
×
Best way to learn
"Now Im Here"
Autoscroll
slow
fast
+/-
esc
set tempo
stop
Queen: Now I'm Here
Album: Sheer Heart Attack

e|---------|----|--------|---------|-------------------------|---------|
B|---------|----|------2-|-3-------|-------------------------|---------|
G|-22222222|-0/-|-222220-|-22222222|-----------------00000000|-000000-0|
D|-00000000|-/0-|-0000000|-00000000|-000000000000000000000000|-000000-0|
A|---------|----|--------|---------|-333333332222222211111111|-1111113-|
E|---------| 3X |--------|---------|-------------------------|---------| riff A


e|---------|----|--------|----------|-----------------|------------------|
B|---------|----|------2-|-3--------|-----------------|-------2-3--------|
G|-22222222|-0/-|-2222202|-222222222|-----------------|-2222220-222222222|
D|-00000000|-/0-|-0000000|-000000000|-0000000000000-00|-00000000000000000|
A|---------|----|--------|----------|-33333333222223--|------------------|
E|---------|----|--------|----------|-----------------|------------------|


e|----------------|---------------------------------------------|
B|----------------|-2----3---32----3----4----5----54----5---2-2-|
G|----------------|-2----0---02----0----4----4----44----4---4-4-|
D|----------000000|-2----2----2----2----4----4-----4----4---4-4-|
A|-333333332222222|-0----0----0----0----2----2-----2----2---4-4-|
E|----------------|---------------------------------------------|


e|----------------------------------------------5-5-|
B|---------------3-3-------------9-9--9-109---7-5-5-|
G|---------------2-2-------------9-9--9--99---7-6-6-|
D|-----2--4-2----0-02--4-4-------9-9--9---9---7-7-7-|
A|--------2-0-----x-0--2-2-----577-7777---7---5-7-7-|
E|-0-34-0-----340---------2-567--0-0000---0-----5-5-|




e|-5557-7--------/55557-7-7---------/12121212121212111112121111-9-9|
B|-7777-7-79-----/77777-7-79-7------/141414141414141212141412121010|
G|---------978-------------978-------------------------------------|
D|------------9---------------97-----------------------------------|
A|------------------------------9----------------------------------|
E|-----------------------------------------------------------------|

e|-77-------------------|
B|-77977--7---77---77...|
G|---978--7---77---77...|
D|------977---77---77...|
A|--------9--999--999...|
E|----------------------|



************************************

| /  Slide up
| x  Dead note

************************************
Suggest correction
comments
print report bad tab
guest
You may want to rate the tab now too:
select rating
Wanna post a correction for this tab? Suggest correction