Oops, an error
Loading. Please wait.

Play The Game bass

version 2
version 2

Whole song

Interactive

by Queen
7 views 1 this week
no commentswrite comment
1 2 3 4 5
2 more votes to show rating
add to favorites
×
Save as Personal and add changes to this tab that will be seen only by you. Learn more ›
×
You can save this tab as Personal to edit and correct it or add notes. All changes will be seen only by you. Learn more »
launch autoscroll
font size
0
reset
guitar tuner
backing track
0:00
0:00
edit
Autoscroll
slow
fast
+/-
esc
set tempo
stop
Based on multitracks

[Verse]
(00:14)
G|---------------------------------|---------------------------------|
D|---------------------------------|---------------------------------|
A|---------------------------------|---------------------------------|
E|---------------------------------|---------------------------------|

G|---------------------------------|
D|---------------------------------|
A|---------------------------------|
E|---------------------------------|

(00:23)                            [Chorus]
G|14--------------------------\----|5-----------5h7------------------|
D|---------------------------------|----------------7----------------|
A|---------------------------------|---------------------------------|
E|---------------------------------|---------------------------------|

G|--------7/9----------------------|----------------5-----------\----|
D|----------------5------------\---|---------------------------------|
A|5--------------------------------|3--------------------------------|
E|---------------------------------|---------------------------------|

G|---------------------------------|----------------4-----------/----|
D|---------------------------------|---------------------------------|
A|---------------------------------|3--------------------------------|
E|1--------------------------------|---------------------------------|

                                   [Solo]
G|12--------------------------\----|---------------------------------|
D|---------------------------------|---------------------------------|
A|---------------------------------|------------------------1---/----|
E|---------------------------------|4--------------------------------|

G|----------------4----------------|---------------------------------|
D|---------------------------------|8-------7-------6----------------|
A|3--------------------------------|---------------------------------|
E|---------------------------------|---------------------------------|
                                                 [Verse] 
G|----------------14----------\----|--------3-------5----------------|
D|5--------------------------------|3--------------------------------|
A|---------------------------------|---------------------------------|
E|---------------------------------|---------------------------------|

G|----------------15---------------|----------------14--13--14--13---|
D|---------------------------------|---------------------------------|
A|---------------------------------|---------------------------------|
E|---------------------------------|---------------------------------|

G|14--16--17--14--13---------------|--------\------|
D|---------------------------------|---------------|
A|---------------------------------|---------------|
E|---------------------------------|---------------|

[Chorus]
G|---------------------------------|------------5h7------------------|
D|------------5h7------------------|----------------5-----------\----|
A|3---------------0----------------|5--------------------------------|
E|---------------------------------|---------------------------------|

G|----------------5-----------5-5--|---------------------------------|
D|---------------------------------|3-----------\--------------------|
A|3--------------------------------|----------------------------1-2--|
E|---------------------------------|----------------1----------------|

G|----------------4----------------|---------------------------------|
D|---------------------------------|---------------------------------|
A|3--------------------------------|3--------------------------------|
E|---------------------------------|----------------3----------------|

G|---------------------------------|---------------|
D|---------------------------------|---------------|
A|---------------------------------|--------1---/--|
E|----------------4----------------|---------------|

[Interlude]
G|----------------4----------------|------------------------5---\----|
D|---------------------------------|8-------7-------5----------------|
A|3--------------------------------|---------------------------------|
E|---------------------------------|---------------------------------|

[Bridge]
G|---------------------------------|---------------------------------|
D|---------------------------------|---------------------------------|
A|---------------------------------|---------------------------------|
E|1---1---1---1---1---1---1---1----|1---1---1---1---1---1---1---/-8--|

G|---------------------------------|------------7/9-9----------------|
D|----------------5----------------|5--------------------------------|
A|5--------------------------------|---------------------------------|
E|---------------------------------|---------------------------------|

G|5-----------7---9-----------\----|---------------------------|
D|---------------------------------|---------------------------|
A|---------------------------------|3---3---3---5---7---\------|
E|---------------------------------|---------------------------|

G|---------------------------------|---------------------------------|
D|---------------------------------|---------------------------------|
A|3-----------3--------------------|---------------------------------|
E|------------------------3--------|---------------------------------|

G|---------------|
D|---------------|
A|---------------|
E|---------------|

[Solo]
G|---------------------------------|---------------------------------|
D|---------------------------------|---------------------------------|
A|3-3-----3-3-----3-3-----3-3------|1-1-1-1-1-1-1-1-1-1-1-1-1-1-1-1--|
E|----3-------3-------3-------3----|---------------------------------|

G|---------------------------------|---------------------------------|
D|---------------------------------|---------------------------------|
A|0-0-----0-0-----0---2---3---0----|---------------------------------|
E|----4-------4--------------------|4-4-4-4-4-4-4-4-4-4-4-4-4-4-4-4--|

G|---------------------------------|--------7------------------------|
D|------------5/7-7-------------7--|----7-7-----------------------5--|
A|3---------------------------7----|5-----------0-0-------------5----|
E|---------------------------------|----------------3----------------|

G|----5---5---/---9-----------\----|---------------------------------|
D|---------------------------------|3--------------------------------|
A|3--------------------------------|------------3-\------------------|
E|---------------------------------|----------------1----------------|

G|--------5---5-5-4-------------4--|5-------5--/----12---------------|
D|---------------------------------|---------------------------------|
A|3--------------------------------|---------------------------------|
E|---------------------------------|---------------------------------|

G|----------\----|
D|---------------|
A|---------------|
E|---------------|

                                   [Chorus]
G|---------------------------------|---------------------------------|
D|---------------------------------|------------5-/-7-------------7--|
A|----------------1-------1--------|3-------3-------------------7----|
E|4--------------------------------|---------------------------------|

G|--------7------------------------|----5-5-5-------5---5-5-----5-5--|
D|----7-------7-----------5-----5--|---------------------------------|
A|5-------------5-------5----------|3--------------------------------|
E|----------------3----------------|---------------------------------|

G|---------------------------------|--------5---------------4--------|
D|3-----------3-3-3-----------3-3--|---------------------------------|
A|---------------------------------|3-----------3-3-2-------------2--|
E|---------------------------------|---------------------------------|

G|----5---5---5--------------------|----------------|
D|---------------------------------|----------------|
A|3--------------------------------|----------------|
E|----------------3----------------|------/-13--\---|

G|---------------------------------|---------------------------------|
D|---------------------------------|---------------------------------|
A|----------------1-1-1-1-1-1-1-/--|3-------------3-0-------------0--|
E|4-4-4-4-4-4-4-4------------------|---------------------------------|

G|--------7------------------------|--------5------------------------|
D|----7-------7---------------5-5--|---------------------------------|
A|5-------------5------------------|3-------------3-1-------------1--|
E|----------------3----------------|---------------------------------|

G|---------------------------------|----5---5---5-5-4----------------|
D|------------1-2-3-----------3-3--|---------------------------------|
A|---------------------------------|3--------------------------------|
E|1--------------------------------|---------------------------------|

G|---------------------------------|----------------|
D|---------------------------------|----------------|
A|3--------------------------------|----------------|
E|----------------3----------------|----------------|

G|---------------------------------|---------------------------------|
D|---------------------------------|---------------------------------|
A|------------------------1---/----|3--------------------------------|
E|4--------------------------------|---------------------------------|


******************************

| / = Slide up
| \ = Slide down
| h = Hammer on

******************************
Suggest correction
Creating personal tab
Creating personal tab
You can edit any tab online and save it as your Personal.

You can edit, replace or remove any tab part or add personal notes – all changes will be seen only by you.

Personal tabs can be accessed anytime from any device, even offline.
Learn more »
Give kudos to tab author, rate the tab!
1 2 3 4 5
comments
print report bad tab
guest
You may want to rate the tab now too:
select rating
Wanna post a correction for this tab? Suggest correction