Oops, an error
Loading. Please wait.

Save Me Bass

version 1
version 1

Whole song

Interactive

by Queen
5,403 views 1 this week
1 commentread comment
1 2 3 4 5
x 8
add to favorites
×
Save as Personal and add changes to this tab that will be seen only by you. Learn more ›
×
You can save this tab as Personal to edit and correct it or add notes. All changes will be seen only by you. Learn more »
save as personal
new!
launch autoscroll
font size
0
reset
guitar tuner
backing track
0:00
0:00
Autoscroll
slow
fast
+/-
esc
set tempo
stop
JG STEINMETZ (jeangabi@club-internet.fr)
Save me,by queen (The Game)


G-------------------------------17-------------------------------------
D---------19-----------------17----17----------------------------------
A------19----19-----------15----------15------------14-15-----17-------
E---17----------17--15---------------------17--17----------15----------

G---------------------------------------------------------------------
D-----------------------------17--------------------------------------
A--15----17----------------17----17-15-----15-14----------------------
E----------------------15------------------------15/8---8/3-----------



G---------------------------------------------------------------------
D---------------------------------------------------------------------
A--5-------4--------2-----5-----5-------------------------------------
E--------------------------------------------------0------5------3-3--

G---------------------------------------------------------------------
D---------------------------------------------------------------------
A--5-------4--------3------2-1-----5-------------3-2-------5----------
E---------------------------------------------------------------------


G------------------------------------------------------------
D------------------------------------------------------------
A-----------------------------------------3--------2-----0---
E-----3------------2--------0---3----------------------------

G------------------------------------------------------------------------------------------
D---------------------5----------------------------------------5-----------12----12--------
A-2-3-----------5---------------3-------------------------3--------5----12----12----12-10/-
E---------------------------------------------3--------------------------------------------


G-------------------------------17-------------------------------------
D---------19-----------------17----17---------------------17-----------
A------19----19-----------15----------15------------14-15-----17-------
E---17----------17--15---------------------17--17----------------------

G----------------------------------------------------------------------
D------------------------------17--------------------------------------
A--15-------17-------------17-----17-15-----15-14----------------------
E----------------------15-------------------------15----15/8---8/3-3-3...



G---------------------------------------------------------------------
D---------------------------------------------------------------------
A--5-------4--------2-----5-----5-------------------------------------
E--------------------------------------------------0------5------3-3-3-


G------------------------------------------------------------------------
D-------------------------------------------------------------7-5--------
A--5------4--------3-2-1------5--------------3---2----0-0-0-0------7-5---
E----------------------------------------------------------------------5-


G----------------
D----------------
A----------------
E--5-5-5-5-...---

Solo-1
G------------------------------------------------------------
D------------------------------------------------------------
A----------------------------------------3--------2-----0-0--
E------3------------2--------0--3----------------------------

G-------5-5-5------7-7-7-----7-5---5-4---7--------------7------------
D--------------------------------------5------5-----7h9---9-7--------
A-2-3-----------5--------------------------3----5-------------10-----
E------------------------3h5-------------------------------------10--

G--------------------------------------------------------------------
D----------------------------------17--------------------------------
A--------15------17-------------17----17--15--15-14---15/8----8/3----
E----------------------------15--------------------------------------

Solo-2
G-------------------------------------------------------------------7----
D---------7--------4-4-------------------------------7-9-10--10--10---10-
A--5----4---5-4--2-----5-2-5--5/11------------5---4----------------------
E----------------------------------0---5----3----------------------------

G---------------------------------7--6--5--4-------7--5--4--7--
D--9-8------------------------------------------8---------------
A-------5-3-2/5--3-3-3-3-3-3-3-3-------------------------------
E-------------------------------------------------------------- 
Suggest correction
comments
print report bad tab
1 comment total.
0 reply
saturns_bassman 789 Sep 08, 2004 08:00 PM

nice tab,dude really great!!

guest
Wanna post a correction for this tab? Suggest correction