Oops, an error
Loading. Please wait.

Show Must Go On Tab

version 1
version 1

Solo

Interactive

57,444 views 69 this week
no commentswrite comment
1 2 3 4 5
x 10
add to favorites
launch autoscroll
font size
0
reset
how to read this tab
guitar tuner
Autoscroll
slow
fast
+/-
esc
set tempo
stop
Help us to improve Ultimate-Guitar.com Take our survey!
×
[Solo]
e|----------------------------------------------------14-15-17-b19---|
B|-------------------------14-15-14h15p14----14-15-17----------------|
G|-16-14----14-16----14-16----------------16-------------------------|
D|-------16-------16-------------------------------------------------|
A|-------------------------------------------------------------------|
E|-------------------------------------------------------------------|

e|-21-b22rbrbr21p19-b22---21--19-21p19----19----19----------|
B|-------------------------------------21----22----22b24...-|
G|----------------------------------------------------------|
D|----------------------------------------------------------|
A|----------------------------------------------------------|
E|----------------------------------------------------------|

e|...17b19---------------------------------------14-15-17-b19r17b19vv--|
B|--------------14-16-14-16p14-16p14----14-15-17-----------------------|
G|---------\/16----------------------16--------------------------------|
D|---------------------------------------------------------------------|
A|---------------------------------------------------------------------|
E|---------------------------------------------------------------------|

e|-14-------17b19----17b19----b19v--------22b24-22---22-19----19------------|
B|----17-15----------------------------15------------------19----22b24vv..--|
G|--------------------------------------------------------------------------|
D|--------------------------------------------------------------------------|
A|--------------------------------------------------------------------------|
E|--------------------------------------------------------------------------|


************************************

| b  Bend
| h  Hammer-on
| p  Pull-off
| r  Release

************************************
Suggest correction
comments
print report bad tab
guest
You may want to rate the tab now too:
select rating
Wanna post a correction for this tab? Suggest correction