Oops, an error
Loading. Please wait.

Somebody To Love Bass

version 1
version 1

Whole song

Interactive

by Queen
46,776 views 105 this week
4 commentsread comments
1 2 3 4 5
x 16
add to favorites
launch autoscroll
font size
0
reset
guitar tuner
backing track
0:00
0:00
×
Best way to learn
"Somebody To Love"
Autoscroll
slow
fast
+/-
esc
set tempo
stop
artist: queen
song: somebody to love

[Intro]
G|----------------------------------|
D|-----------5-----------5---6------|
A|---6---8-------6---8--------------|
E|----------------------------------|

[Verse](this is the root of the verse part of the song, everything is
         based on this, so you can use this as a base for the whole thing)
G|--------------|---------8-|------------|---------------|
D|---6---5------|-6---8-----|--6---5-----|--8------------|
A|-----------8--|-----------|----------8-|---------5---6-|
E|--------------|-----------|------------|-----------6---|

G|-----------|--------------------------------------|-------------------|
D|-----------|--------------------------------------|-------------------|
A|---------6-|--6--5--3--4--------------------------|-------------4---6-|
E|-4---6-----|--------------4-4-4-4-4-4-4-4-4-4-4-4-|--4--4-3-3-1-------|

[Chorus] (starts when freddie yells, somebody to love)
G|-------------------------------------------------------------|
D|-------------------------------------------------------------|
A|-------------------------------------4-4-4-4-3-4-6-6-6-6-6-6-|
E|-4-4-4-4-4-4-3-3-3-3-3-3-1-1-1-1-1-1-------------------------|

[Verse 2] (this contains some riffs. deacon does alotta improv in the
          song...so much that its not worth tabbing all of it. i ve
          included the riffs in this verse only but he still follows
          the same root.)
G|-------------|------------8-|-----8---------------|----------|
D|---6-----5---|--6---8---8---|---8---8---6---5-----|----------|
A|-----------8-|--------8-----|---------6---------8-|------8---|
E|-------------|--------------|---------------------|----------|

G|-8--10-10-8---------------------8---|8---7---5---6-|
D|------------11-10-8-----------8---8-|--------------|
A|----------------------------6-------|--------------|
E|--------------------4---6-----------|--------------|

G|-------------------------|---------6---8---|
D|-6-6-6-6-6-6-6-6-6-6-6-6-|-6-6-5-3-------6-|
A|-------------------------|-----------------|
E|-------------------------|-----------------|

[Bridge]
G|---------------------3-4-5-|--------------------|-----------|---------------------|
D|-6-6-6-6-6-6-6-6-6-6-------|6-5-3---------------|-----------|---------------------|
A|---------------------------|------6-4-3---------|-6-8-6-8-4-|--4-4-4/15--4-4-4/15-|
E|---------------------------|------------4-4-4-4-|-----------|---------------------|

G|---------------------|-------------------|-----------------2-----------2-|
D|---------------------|---4/8---------4/8-|-------------2-4---4-2---2-4---|
A|-4-4-4-4-4-4-4-4-4-4-|-------------------|-----------4-----------4-------|
E|---------------------|-2------2-2-2------|-2-2-2-2-5---------------------|

G|---------------------6-7-|---------6-7---------------|-----------|
D|-8-8-8-8-8-8-8-8-8-8-----|-8-8-8-8-----8-7-5---8-7---|-----------|
A|-------------------------|-------------------8-----6-|-6-6-6-6-6-|
E|-------------------------|---------------------------|-----------|

[Intro]
[Verse]
[Chorus]
[Verse]
[Chorus]
[Bridge]
[Guitar solo] (same as verse)
[Chorus]
[Verse]
[Vocal solo] (no bass)
[Chorus] (over and over)

************************************

| /  Slide up

************************************
Suggest correction
comments
print report bad tab
4 comments total. Showing first comments.
+1 reply
saturns_bassman 789 Sep 08, 2004 08:00 PM

grat tab buddy!!5 stars

0 reply
the_underling 10 Oct 31, 2006 09:19 AM

There are one or two problems with this if you look at the sheet music... but the thrust of it is good stuff :)

0 reply
BennX04 21 Dec 30, 2015 02:33 AM

The key of this tab is Bb, but the actual song key is Ab, correct? In that case, everything needs to be played two frets down

guest
You may want to rate the tab now too:
select rating
Wanna post a correction for this tab? Suggest correction