Oops, an error
Loading. Please wait.

Tie Your Mother Down tab

version 2
version 2

Whole song

Interactive

by Queen
51,689 views 39 this week
4 commentsread comments
1 2 3 4 5
x 8
add to favorites
×
Save as Personal and add changes to this tab that will be seen only by you. Learn more ›
×
You can save this tab as Personal to edit and correct it or add notes. All changes will be seen only by you. Learn more »
launch autoscroll
font size
0
reset
how to read this tab
guitar tuner
backing track
0:00
0:00
edit
Autoscroll
slow
fast
+/-
esc
set tempo
stop
Author
Unregistered
Tabbed by:Conky
Email:conky4@hotmail.com

Tuning: Standard (EADGBe)
(use a slide for the solo)

[Verse] x5
   A                                                G C 
e|--------------------------------------------------3-3----------------------|
B|-222----222---222---222---222---222---222---222---3-0-3-3------------------|
G|-222----222---222---222---222---222---222---222---0-0-0-0------------------|
D|-222----222---222---222---222---222---222---222---0-0-2-0------------------|
A|-003p0--003p0-003p0-003p0-003p0-003p0-003p0-003p0-2-0-3-2------------------|
E|--------------------------------------------------3-2----------------------|

[Pre-chorus]
(part 1)
e|---------------------------------------------------------------------------|
B|---------------------------------------------------------------------------|
G|-7-7- 7-7-7- 7-7-7- 7-7-7- 7-7-7- 7-7-7- 7-7-7- 7-121212121212\------------|
D|-7-7-11-7-7-11-7-7-11-7-7-11-7-7-11-7-7-11-7-7-11-121212121212\------------|
A|-9-9- 9-9-9- 9-9-9- 9-9-9- 9-9-9- 9-9-9- 9-9-9- 9-101010101010\------------|
E|---------------------------------------------------------------------------|

[Pre-chorus]
(part 2)
e|---------------------------------------------------------------------------|
B|-222----222---222---222---222---222---222---222----------------------------|
G|-222----222---222---222---222---222---222---222----------------------------|
D|-222----222---222---222---222---222---222---222----------------------------|
A|-003p0--003p0-003p0-003p0-003p0-003p0-003p0-003p0-0-2-3-4------------------|
E|---------------------------------------------------------------------------|

[Pre-chorus]
(part 3)
e|---------------------------------------------------------------------------|
B|-222---222-----------------------------------------------------------------|
G|-222---222-----------------------------------------------------------------|
D|-222---222-----------------------------------------------------------------|
A|-003p0-003p0-0-2-3-4-------------------------------------------------------|
E|---------------------------------------------------------------------------|

[Chorus]
e|---------------------------------------------------------------------------|
B|-----------------------------3-3-------------------------------------------|
G|-7-7-7-7-7-7-7-7-7-7-7-7-2-2-0-2-2-2-2-2-2-2-2-7-7-7-7-7-7-7-7-7-7-7-7-----|
D|-7-7-9-7-7-9-7-7-9-7-7-9-2-2-0-0-2-2-2-2-2-2-2-7-7-9-7-7-9-7-7-9-7-7-9-----|
A|-5-5-5-5-5-5-5-5-5-5-5-5-0-2-----0-0-0-0-0-0-0-5-5-5-5-5-5-5-5-5-5-5-5-----|
E|-----------------------------3-3-------------------------------------------|

e|-3-3-----------------------------------------------------------------------|
B|-3-0-3-3-------------------------------------------------------------------|
G|-0-0-0-0-------------------------------------------------------------------|
D|-0-0-2-0-------------------------------------------------------------------|
A|-2-0-3-2-------------------------------------------------------------------|
E|-3-2-----------------------------------------------------------------------|

[Verse] x3
   A                                                G C 
e|--------------------------------------------------3-3----------------------|
B|-222----222---222---222---222---222---222---222---3-0-3-3------------------|
G|-222----222---222---222---222---222---222---222---0-0-0-0------------------|
D|-222----222---222---222---222---222---222---222---0-0-2-0------------------|
A|-003p0--003p0-003p0-003p0-003p0-003p0-003p0-003p0-2-0-3-2------------------|
E|--------------------------------------------------3-2----------------------|

[Pre-chorus]
(part 1)
e|---------------------------------------------------------------------------|
B|---------------------------------------------------------------------------|
G|-7-7- 7-7-7- 7-7-7- 7-7-7- 7-7-7- 7-7-7- 7-7-7- 7-121212121212\------------|
D|-7-7-11-7-7-11-7-7-11-7-7-11-7-7-11-7-7-11-7-7-11-121212121212\------------|
A|-9-9- 9-9-9- 9-9-9- 9-9-9- 9-9-9- 9-9-9- 9-9-9- 9-101010101010\------------|
E|---------------------------------------------------------------------------|

[Pre-chorus]
(part 2)
e|---------------------------------------------------------------------------|
B|-222----222---222---222---222---222---222---222----------------------------|
G|-222----222---222---222---222---222---222---222----------------------------|
D|-222----222---222---222---222---222---222---222----------------------------|
A|-003p0--003p0-003p0-003p0-003p0-003p0-003p0-003p0-0-2-3-4------------------|
E|---------------------------------------------------------------------------|

[Pre-chorus]
(part 3)
e|---------------------------------------------------------------------------|
B|-222---222-----------------------------------------------------------------|
G|-222---222-----------------------------------------------------------------|
D|-222---222-----------------------------------------------------------------|
A|-003p0-003p0-0-2-3-4-------------------------------------------------------|
E|---------------------------------------------------------------------------|

[Chorus]
e|---------------------------------------------------------------------------|
B|-----------------------------3-3-------------------------------------------|
G|-7-7-7-7-7-7-7-7-7-7-7-7-2-2-0-2-2-2-2-2-2-2-2-7-7-7-7-7-7-7-7-7-7-7-7-----|
D|-7-7-9-7-7-9-7-7-9-7-7-9-2-2-0-0-2-2-2-2-2-2-2-7-7-9-7-7-9-7-7-9-7-7-9-----|
A|-5-5-5-5-5-5-5-5-5-5-5-5-0-2-----0-0-0-0-0-0-0-5-5-5-5-5-5-5-5-5-5-5-5-----|
E|-----------------------------3-3-------------------------------------------|

e|-3-3-----------------------------------------------------------------------|
B|-3-0-3-3-------------------------------------------------------------------|
G|-0-0-0-0-------------------------------------------------------------------|
D|-0-0-2-0-------------------------------------------------------------------|
A|-2-0-3-2-------------------------------------------------------------------|
E|-3-2-----------------------------------------------------------------------|

[Verse]
   A                                                G C 
e|--------------------------------------------------3-3----------------------|
B|-222----222---222---222---222---222---222---222---3-0-3-3------------------|
G|-222----222---222---222---222---222---222---222---0-0-0-0------------------|
D|-222----222---222---222---222---222---222---222---0-0-2-0------------------|
A|-003p0--003p0-003p0-003p0-003p0-003p0-003p0-003p0-2-0-3-2------------------|
E|--------------------------------------------------3-2----------------------|

[Solo 1]
e|---------------------------------------------------------------------------|
B|--------------------------8-5----------------------------------------------|
G|-5b-------7-5b-------7-6b-----8-7-5----------------------------------------|
D|----7-7-5------7-7-5----------------7-5------------------------------------|
A|----------------------------------------7-6-5-3-3p0-5p0-3p0-5p0-3p0-5p0----|
E|---------------------------------------------------------------------------|

e|---------------------------------------------------------------------------|
B|---------------------------------------------------------------------------|
G|---------------------------------------------------------------------------|
D|-------------------------------------------------------------5---5-7-------|
A|-3p0-5p0-3p0-5p0-3p0-5p0-3p0-5p0-3p0-5p0-3p0-5p0-3p0-5p0-5-7---7-----7~----|
E|---------------------------------------------------------------------------|

e|---------------------------------------------------------------------------|
B|------------------------------------12b-12b-12-10-12-----------------------|
G|----------------11-11b-11-9-11-9-11----------------------------------------|
D|-5-0-7-0----9-9-------------11---------------------------------------------|
A|---------7~----------------------------------------------------------------|
E|---------------------------------------------------------------------------|

e|-3\\\\\\\\\\\\\\14-3\\\\\\\\\\\\\\14-14-------17-15------------------------|
B|-3\\\\\\\\\\\\\\14-3\\\\\\\\\\\\\\14----16-17-------17-15-13---------------|
G|-3\\\\\\\\\\\\\\14-3\\\\\\\\\\\\\\14-------------------------12-14---------|
D|-3\\\\\\\\\\\\\\---3\\\\\\\\\\\\\\-----------------------------------------|
A|---------------------------------------------------------------------------|
E|---------------------------------------------------------------------------|

e|-3\\\\\\\\\\\\\\14-3\\\\\\\\\\\\\\14---------------------------------------|
B|-3\\\\\\\\\\\\\\14-3\\\\\\\\\\\\\\14----12-------12-------12-------12------|
G|-3\\\\\\\\\\\\\\14-3\\\\\\\\\\\\\\14-------14bp0----14bp0----14bp0----14bp0|
D|-3\\\\\\\\\\\\\\---3\\\\\\\\\\\\\\-----------------------------------------|
A|---------------------------------------------------------------------------|
E|---------------------------------------------------------------------------|

e|---------------------------------------------------------------------------|
B|----12-------12-------12-------12-------12-------12-------12-------12------|
G--------14bp0----14bp0----14bp0----14bp0----14bp0----14bp0----14bp0----14bp0|
D|---------------------------------------------------------------------------|
A|---------------------------------------------------------------------------|
E|---------------------------------------------------------------------------|

e|--------------------------------------------------3\\\\\\\\\\\\\\14--------|
B|--------------------------------------------------3\\\\\\\\\\\\\\14--------|
G|-7-7- 7-7-7- 7-7-7- 7-7-7- 7-7-7- 7-7-7- 7-7-7- 7-3\\\\\\\\\\\\\\14--------|
D|-7-7-11-7-7-11-7-7-11-7-7-11-7-7-11-7-7-11-7-7-11-3\\\\\\\\\\\\\\----------|
A|-9-9- 9-9-9- 9-9-9- 9-9-9- 9-9-9- 9-9-9- 9-9-9- 9--------------------------|
E|---------------------------------------------------------------------------|

e|-3\\\\\\\\\\\\\\14-14-14-14-14-14-14---------------------------------------|
B|-3\\\\\\\\\\\\\\14-14-14-14-14-14-14---------------------------------------|
G|-3\\\\\\\\\\\\\\14-14-14-14-14-14-14---------------------------------------|
D|-3\\\\\\\\\\\\\\-----------------------------------------------------------|
A|--------------------------------------0-0-2-2-3-4--------------------------|
E|---------------------------------------------------------------------------|

[Chorus]
e|---------------------------------------------------------------------------|
B|-----------------------------3-3-------------------------------------------|
G|-7-7-7-7-7-7-7-7-7-7-7-7-2-2-0-2-2-2-2-2-2-2-2-7-7-7-7-7-7-7-7-7-7-7-7-----|
D|-7-7-9-7-7-9-7-7-9-7-7-9-2-2-0-0-2-2-2-2-2-2-2-7-7-9-7-7-9-7-7-9-7-7-9-----|
A|-5-5-5-5-5-5-5-5-5-5-5-5-0-2-----0-0-0-0-0-0-0-5-5-5-5-5-5-5-5-5-5-5-5-----|
E|-----------------------------3-3-------------------------------------------|

e|-3-3-----------------------------------------------------------------------|
B|-3-0-3-3-------------------------------------------------------------------|
G|-0-0-0-0-------------------------------------------------------------------|
D|-0-0-2-0-------------------------------------------------------------------|
A|-2-0-3-2-------------------------------------------------------------------|
E|-3-2-----------------------------------------------------------------------|

[Verse]
   A                                                G C 
e|--------------------------------------------------3-3----------------------|
B|-222----222---222---222---222---222---222---222---3-0-3-3------------------|
G|-222----222---222---222---222---222---222---222---0-0-0-0------------------|
D|-222----222---222---222---222---222---222---222---0-0-2-0------------------|
A|-003p0--003p0-003p0-003p0-003p0-003p0-003p0-003p0-2-0-3-2------------------|
E|--------------------------------------------------3-2----------------------|

[Solo 2]
e|---------------------------------------------------------------------------|
B|--------------------------8-5----------------------------------------------|
G|-5b-------7-5b-------7-6b-----8-7-5----------------------------------------|
D|----7-7-5------7-7-5----------------7-5------------------------------------|
A|----------------------------------------7-6-5-3-3p0-5p0-3p0-5p0-3p0-5p0----|
E|---------------------------------------------------------------------------|

e|---------------------------------------------------------------------------|
B|-------------------------------------------------------------2-------------|
G|-------------------------------------------------------------2-------------|
D|-------------------------------------------------------------2-------------|
A|-3p0-5p0-3p0-5p0-3p0-5p0-3p0-5p0-3p0-5p0-3p0-5p0-3p0-5p0-5~--0-------------|
E|---------------------------------------------------------------------------|


************************************

| p  Pull-off
| \  Slide down
| b  Bend
| ~  Vibrato

************************************

            
            
Suggest correction
Creating personal tab
Creating personal tab
You can edit any tab online and save it as your Personal.

You can edit, replace or remove any tab part or add personal notes – all changes will be seen only by you.

Personal tabs can be accessed anytime from any device, even offline.
Learn more »
comments
print report bad tab
4 comments total. Showing first comments.
0 reply
Croat 253 Apr 16, 2005 08:00 PM

this is really bad, try other versions

0 reply
Ollie J 10 Dec 02, 2007 06:37 AM

ur tite its alright just the chords on da intro r a bit...

0 reply
Lenmacca 10 Jul 22, 2013 12:07 PM

In the intro, the chord played after the D chord kinda resembles an open G chord, except with the D note on the second string fretted instead of the high G note on the first string. Pretty much just move your fingers on the low E and A strings back a string and move them back again, as shown below.
A D
e|--------------------------------------------------2-0-0-0-|
B|-222----222---222---222---222---222---222---222---3-3-3-3-|
G|-222----222---222---222---222---222---222---222---2-0-0-0-|
D|-222----222---222---222---222---222---222---222---0-0-2-0-|
A|-003p0--003p0-003p0-003p0-003p0-003p0-003p0-003p0-0-2-3-2-|
E|----------------------------------------------------3---3-|

Hope this helps :)

guest
Wanna post a correction for this tab? Suggest correction