Oops, an error
Loading. Please wait.

Tie Your Mother Down Bass Tab

version 3
version 3

Whole song

Interactive

808 views 9 this week
no commentswrite comment
1 2 3 4 5
accurate
x 3
add to favorites
launch autoscroll
font size
0
reset
guitar tuner
Tab Pro tools
  • play this tab
  • loop segment
  • change instrument
  • show fretboard
  • metronome
×
Best way to learn
"Tie Your Mother Down"
Autoscroll
slow
fast
+/-
esc
set tempo
stop
Contributor
Difficulty
novice
This was made with the isolated bass of the song...if you have problems reading the tab 
just listen to the isolated bass on youtube.
G|--------------------------------|
D|--------------------5--4--------|
A|-0-----0--0---------------3--2--|
E|--------------------------------|

G|------------------------------------------------------------------------------|
D|-------------------------------------------------------------------5--4-------|
A|-0-0-3-0-0--0-0-3-0-0--0-0-3-0-0--0-0-3-0-0--0-0-3-0-0--0-0-3-0-0--------3--2-|  X3
E|------------------------------------------------------------------------------|

G|------------------------------------------------------------------------------|
D|------------------------------------------------------------------------------|
A|7-7--7-7--7-7--7-7--7-7--7-7--7-7--7-7--7-7--7-7--7-7--7-7--7-7--10-10-10-10--|
E|------------------------------------------------------------------------------|


G|------------------------------------------------------------------------------|
D|------------------------------------------------------------------------------|
A|-0-0-3-0-0--0-0-3-0-0--0-0-3-0-0--0-0-3-3-3--3-3-3-3-3--3-3-3-3-3-0-2-3-4-----|  
E|------------------------------------------------------------------------------|

G|------------------------------------------------------------------------------|
D|-----4-4-----------------------------------------7-7-7-7-7-7-7-7--------------|
A|-5-5-----5-5-5-5-5-5-5-5-5-5-5-5----------------------------------------------|  
E|---------------------------------5-5-5-5-5-5-5-5------------------------------|

G|------------------------------------------------------------------------------|
D|----------------------------5--4-----------------------------------5--4-------|
A|-5-5-5-5-5-5-5-5-5-5-5-5-5-5-------3--2-0-0------------------------------3--2-|  
E|------------------------------------------------------------------------------|

G|------------------------------------------------------------------------------|
D|-------------------------------------------------------------------5--4-------|
A|-0-0-3-0-0--0-0-3-0-0--0-0-3-0-0--0-0-3-0-0--0-0-3-0-0--0-0-3-0-0--------3--2-| 
E|------------------------------------------------------------------------------|

G|------------------------------------------------------------------------------|
D|-------------------------------------------------------------------5--4-------|
A|-0-0-0-0-0--0-0-3-0-0--0-0-0-0-0--0-0-3-0-0--0-0-0-0-0--0-0-3-0-0--------3--2-| 
E|------------------------------------------------------------------------------|


G|------------------------------------------------------------------------------|
D|-----6-6-7-7-9-9-----6-6-7-7-9-9-----6-6-7-7-9-9---5-5-5-5--------------------|
A|-7-7-------------7-7-------------7-7-------------7----------0-0--0-0-0-3-0-0--|
E|------------------------------------------------------------------------------|

G|------------------------------------------------------------------------------|
D|------------------------------------------------------------------------------|
A|-0-2-3-4--5-5-5-5-5-5-5-5-5-5-5-5-5-5-----------------------------------------|  
E|--------------------------------------5-5-5-5-5-5-5-5-5-5-5-5-5-5-------------|

G|------------------------------------------------------------------------------|
D|-----4-5-7--------4-5-7----5--4-----------------------------------5--4--------|
A|-5-5----------5-5----------------3--2--0--------------------------------3--2--|  
E|------------------------------------------------------------------------------|

G|------------------------------------------------------------------------------|
D|-------------------------------------------------------------------5--4-------|
A|-0-0-3-0-0--0-0-3-0-0--0-0-3-0-0--0-0-3-0-0--0-0-3-0-0--0-0-3-0-0--------3--2-| X2  
E|------------------------------------------------------------------------------|

G|-----------------9-9-7-7-6-6-4-4----------------------------------------------|
D|-----6-6-7-7-9-9-----------------------------------5--5--5--5-----------------|
A|-7-7-----------------------------7-7-5-5-4-4-----5----------------------------|
E|---------------------------------------------7-7------------------------------|

G|------------------------------------------------------------------------------|
D|-------------------------------------------------------------------5--4-------|
A|-0-0-3-0-0--0-0-3-0-0--0-0-3-0-0--0-0-3-0-0--0-0-3-0-0--0-0-3-0-0--------3--2-|  X2
E|------------------------------------------------------------------------------|

G|------------------------------9-9-------9-9-------9-9-------9-9---------------|
D|------------------------------------------------------------------------------|
A|7-7--7-7--7-7--7-7--7-7--7-7------7-7-------7-7-------7-7-------7-10-10-10-10-|
E|------------------------------------------------------------------------------|

G|------------------------------------------------------------------------------|
D|---------------------------------------4-4-5-5-7-7-------4-4-5-5-7-7----------|
A|-0---0-0-------0-0-0-0------2-3-4--5-5---------------5-5----------------------|
E|------------------------------------------------------------------------------|

G|------------------------------------------------------------------|-----------|
D|----------------------------------4-5-7------4-5-7--5--4----------|-5--4------|
A|0-0---0---0---0---0---0---0---5-5--------5-5--------------3--2--0-|----- 3--2-|
E|------------------------------------------------------------------|-----------|

G|------------------------------------------------------------------------------|
D|-------------------------------------------------------------------5--4-------|
A|-0-0-3-0-0--0-0-3-0-0--0-0-3-0-0--0-0-3-0-0--0-0-3-0-0--0-0-3-0-0--------3--2-|  X3
E|------------------------------------------------------------------------------|

G|------------------------------------------------------------------------------|
D|---------------------------(Toniiiight!!!)------------------------------------|
A|-5----------------------Just do some improv in this part------------------0---|
E|------------------------------------------------------------------------------|
comments
We did not receive enough feedback on this tab! Please rate:
print report bad tab
1 2 3 4 5
I want to post or [tab]
guest
You may want to rate the tab now too:
select rating
Please do not post tabs as comments. Select "correction" instead!