Oops, an error
Loading. Please wait.
We have an official We Are The Champions tab made by UG professional guitarists. Check out the tab »
×
by Queen
34,597 views 27 this week
2 commentsread comments
1 2 3 4 5
x 11
add to favorites
×
Save as Personal and add changes to this tab that will be seen only by you. Learn more ›
×
You can save this tab as Personal to edit and correct it or add notes. All changes will be seen only by you. Learn more »
launch autoscroll
font size
0
reset
guitar tuner
backing track
0:00
0:00
edit
Autoscroll
slow
fast
+/-
esc
set tempo
stop
Author
Unregistered
Here's my attempt to write down the Bass Tabs for "We Are The 
Champions" by Queen.
       
[Verse 1]
       *.. *..*..  *  .  .  *  .  .    * . . * . .  *  .  .  *  .  .
G|-------+------+----12-12-10-------+------------+----12-12-12-12-12|
D|-6:----|------|-------------13-8--|-10---------|------------------|
A|-8:----|------|-------------------|------------|------------------|
E|-------+------+-------------------+------------+------------------|
      
    * . . * . . *..*.. *..*.. * . . * . .   * . . * . .  * . . * . .  
G|------------+------+------+----------7-+-8-----------+-----------|
D|-10---------|------|------|--------8---|-------------|-----------|
A|------------|------|------|------------|-------------|-----------|
E|------------+------+------+------------+-------------+-----------|
    
    * . . * . . *..*..  * . . * . .  * . . * . .  * . . * ..  *..*..                
G|------------+---8---+------------+-------2----+-----------+------|
D|------------|-------|------------|------------|-----------|------|
A|-6----------|-------|-6-----5----|-3----------|-1---------|------|
E|------------+-------+------------+------------+-----------+------|
    
[Chorus]  
    *.. * . .  * . . * . .   * . . * . .   * . . * . .   * . . * . .      
G|-----5----+-------------+-------------+-------------+------------|
D|----------|-3---------5-|-7---------7-|-O-----------|------------|
A|----------|-------------|-------------|---------3-1-|-1-----3----|
E|----------+-------------+-------------+-------------+------------|
        
    * ..*..  * . . * . .   * . . * . .   * ..*..  *.. *..  *.. *..         
G|--------+-------------+-------------+--------+--------+----------| 
D|--------|-------------|-------------|--------|--------|----------|
A|--------|-O---------O-|-1-------O---|--------|--------|----------|
E|-1------+-------------+-----------3-+-2------+-3------+-3--------|
     
    * . . * . .   *.. *..   *.. *..  *.. * . .   *.. * . .    
G|-------------+---------+--------+-----------+-----------|
D|-------------|---------|--------|-----3-O---|-----3-O---|
A|-1---------1-|-1---3---|--------|---------3-|---------3-|
E|-------------+---------+-1------+-3---------+-4---------| 
     
    *.. * . .   * . . *..   *.. *..
G|-----------+-----------+--------|
D|-----3-O---|-----------|--------|
A|-1-------3-|-3-3-------|--------| 5 bars rest.....
E|-----------+-----------+-1------|   
        
[Verse #2]
    * . . *..  *.. *..  *.. *..  *.. *..  * . . *..  *.. *.. *.. *.. 
G|----------+--------+--------+--------+----------+--------+-------|
D|-10-------|--------|--------|--------|-10-------|--------|-------|
A|----------|--------|--------|--------|----------|--------|-------|
E|----------+--------+-8------+--------+----------+--------|-------|
        
    *.. * . .   *.. *..  *.. * . .   *.. * . .   *.. *..   *.. *..         
G|---------7-+-8------+-----8---8-+-----8-8-8-+---------+----------|
D|-------8---|--------|-----------|-----------|---------|----------|
A|-----------|--------|-6---------|-6---------|-6-------|-6---5----|
E|-----------+--------+-----------+-----------+---------+----------|
        
    *.. *..  *.. *..      
G|-----2--+--------|
D|--------|--------|
A|-3------|--------|
E|--------|-1------|
     
[Chorus x2]


            
            
Suggest correction
Creating personal tab
Creating personal tab
You can edit any tab online and save it as your Personal.

You can edit, replace or remove any tab part or add personal notes – all changes will be seen only by you.

Personal tabs can be accessed anytime from any device, even offline.
Learn more »
comments
print report bad tab
2 comments total.
+1 reply
saturns_bassman 789 Sep 08, 2004 08:00 PM

great ***ing tab,mate just ***ing great

-1 reply
desocio.michael28 10 Apr 24, 2017 07:39 PM

the chorus is off. Pitch wise

guest
Wanna post a correction for this tab? Suggest correction