Oops, an error
Loading. Please wait.

We Will Rock You Tab

version 1
version 1
346,508 views 384 this week
44 commentsread comments
1 2 3 4 5
x 60
add to favorites
launch autoscroll
font size
0
reset
how to read this tab
guitar tuner
Autoscroll
slow
fast
+/-
esc
set tempo
stop
Help us to improve Ultimate-Guitar.com Take our survey!
×
We Will Rock You - Queen

By: Paul Goulding


e|----------------|---------------|---------------|--------------|
B|----------------|---------------|---------------|--------------|
G|--(9)-----------|---------------|---------------|--------------|
D|----------------|---------------|---------------|--------------|
A|----------------|---------------|---------------|--------------|
E|----------------|---------------|---------------|--------------|

Long sustained note (crescendo) for 4 bars 
e|----------------------------------------------------------------|
B|----------------------------------------------------------------|
G|--- 5 ----------------------------------------------X-----X-----|
D|--- 5 ----------------------------------------------X-----X-----|
A|--- 3 ----------------------------------------------X-----X-----|
E|----------------------------------------------------------------| 


e|----------------------------------------------------------------|
B|----------------------------------------------------------------|
G|---2-------2------X—-X—-X--X----2------2-------2--------14------|
D|---2-------2------X--X--X--X----2------2-------2--------14------|
A|---0-------0------X--X--X--X----0------0-------0----------------|
E|---------3----------------------------------3-------------------|

                
e|----------------------------------------------------------------|
B|----14h-15----------15--14--------------------------------14----|
G|----14--------------14--14--------------------------------14----|
D|----14h-16----------16--14--------------------------------14----|
A|-----------0-----------------------------------------0----------|
E|----------------------------------------------------------------|

         
e|-----------------------------------------------------17p-15-----|
B|----14h-15--15p-14—-15p-14—-15p-14-----------14-----------------|
G|----14------14------14------14----------------------------------|
D|----14h-16—-16p-14—-16p-14—-16p-14---------------------------14-|
A|----------------------------------------------------------------|
E|----------------------------------------------------------------|

Let note ring--|                                      
e|-14-------------------------------------------------------------|
B|------17--------15p-14-------15-—--------------15p14------------|
G|----------------14-----------14-----------------------16p14-----|
D|---14----14-----16p-14—-16---16---------------------------------|
A|----------------------------------------------------------------|
E|----------------------------------------------------------------|

        BU                       BU     
e|-------------------------------14-------------------------------|
B|----17----17p14---17--17(19)---------17p-14----------------14---|
G|-------------------------------------------16(18)-16p14—---14---|
D|-----------------------------------------------------------14---|
A|--0----0---------------------------------------------------0----|
E|----------------------------------------------------------------| 


e|----------------------------------------------------------------|
B|-----15p-14—-15p-14-------------14------------------------------|
G|-----14------14-----------------14------------------------------|
D|-----16p-14—-16p-14----14-------14------------------------X-----|
A|--------------------------------0-------------------------------|
E|----------------------------------------------------------------|


e|----------------------------------------------------------------|
B|---14---15p-14—-15p-14------14---------15-----14---------14-----|
G|---14---14------14----------14---------14-----14---------14-----|
D|---14---16p-14—-16p-14--14--14---------16-----14---------14-----|
A|---0------------------------0-----------------0----------0------|
E|----------------------------------------------------------------| 


e|----------------------------------------------------------------|
B|---14---15p-14—-15p-14------14---------15-----14---------14-----|
G|---14---14------14----------14---------14-----14---------14-----|
D|---14---16p-14—-16p-14--14--14---------16-----14---------14-----|
A|---0------------------------0-----------------0----------0------|
E|----------------------------------------------------------------|


e|----------------------------------------------------------------|
B|---14---15p-14--15p-14------14---------15-----14---------14-----|
G|---14---14------14----------14---------14-----14---------14-----|
D|---14---16p-14--16p-14--14--14---------16-----14---------14-----|
A|---0------------------------0-----------------0----------0------|
E|----------------------------------------------------------------|


e|----------------------------------------------------------------|
B|---14---15p-14—-15p-14------14---------15-----14----------------|
G|---14---14------14----------14---------14-----14----------------|
D|---14---16p-14—-16p-14--14--14---------16-----14----------------|
A|---0------------------------0-----------------0-----------------|
E|----------------------------------------------------------------|


************************************

h  - hammer on 
p  - pull off 
BU - bend string up
~  - vibrato 
X  - play 'note' with string muting

************************************
Suggest correction
comments
print report bad tab
44 comments total. Showing first comments. show 2 bad comments
+1 reply
SOAD_666 70 Oct 28, 2002 12:00 AM

Straight from Total Guitar Mag!

guest
You may want to rate the tab now too:
select rating
Wanna post a correction for this tab? Suggest correction