Oops, an error
Loading. Please wait.

Youre My Best Friend Tab

version 1
version 1

Solo

Interactive

by Queen
3,091 views 6 this week
no commentswrite comment
1 2 3 4 5
x 4
add to favorites
launch autoscroll
font size
0
reset
how to read this tab
guitar tuner
backing track
0:00
0:00
×
Best way to learn
"Youre My Best Friend"
Autoscroll
slow
fast
+/-
esc
set tempo
stop
Tuning
E A D G B E
Solo from Live Killers

e|---------------------------------------------------------1----|
B|------------------------------------------------------(1)1----|
G|-------------5h7p5__v\------------7---5v-----4-----2p0---1----|
D|---------5-------------5-----5------7----------3----(0)--3----|
A|-3---5/7----------------7-------------------------------------|
E|--------------------------------------------------------------|
 
                *        *       *        *     *       *         *        *          *
e|-----------------------------------------------------------------------------------------------|
B|----------------------------------(0)-9-9---9-9------10---------13---------15-15/17___/19---19-|
G|-----------------------12---12\10-(0)-9-9---9---------9/13------12---14------------------------|
D|-12b_13r12p10-12v---10-12---12----(0)-9-9---9-----10-------12/13-----14h16----------17/19------|
A|-----------------------------------------------------------------------------------------------|
E|-----------------------------------------------------------------------------------------------|

       *
e|---------15---------17_____/_____(19)------20---------------|
B|-----------------------------------------------17-----------|
G|-14/16-----------17------17/19____v----------------17-------|
D|-------------------------------------------------------17---|
A|------------------------------------------------------------|
E|------------------------------------------------------------|
Suggest correction
comments
print report bad tab
guest
You may want to rate the tab now too:
select rating
Wanna post a correction for this tab? Suggest correction