Oops, an error
Loading. Please wait.

3S And 7S Tab

version 1
version 1

Solo

Whole song

Interactive

1,194 views 1 this week
no commentswrite comment
1 2 3 4 5
please rate
add to favorites
launch autoscroll
font size
0
reset
how to read this tab
guitar tuner
Autoscroll
slow
fast
+/-
esc
set tempo
stop
Help us to improve Ultimate-Guitar.com Take our survey!
×
Author
QOTSA - 3's and 7's Solos

Tuning: C standard

I made this when I was learning it for myself and figured I would share in case 
anyone wants it. The other tabs have the rest of the song tabbed out pretty good.

solo 1:
e|------------------------------------------------13----------------------------------------------|
B|---------------------------------------------10-------------------------13--------/14--14\------|
G|-------------------------5------6-6~\--------12b14r12-10~--10-12p10--------10-------------------|
D|----5b--3------5p3-3-------3----------------------------------------12--------12~-/14--14\------|
A|-----------5------5---/5-----/7-----------------------------------------------------------------|
E|------------------------------------------------------------------------------------------------|


End Solo:
e|---10----10-13p10----10-13p10----10h13p10----10--/17-----------------|
B|---13b15----------15----------15----------13---------17-17~-17b18r17-|
G|---------------------------------------------------------------------|
D|---------------------------------------------------------------------|
A|---------------------------------------------------------------------|
E|---------------------------------------------------------------------|

-------------------------------------------------------|
-15h17p15----15------------------------------14-14\----|
----------17----17b19----14-17----14-17----------------|
-------------------------------17--------/14(14)-------|
-------------------------------------------------------|
-------------------------------------------------------|


*This is the Billy Gibbons move where you bend at the 12 and, while holding it, 
reach over and tap 17 with your finger on your pick hand.
e|------------------------------------------------------------------------------------|
B|--10--8-11--11-10--6--8--14~--------------------------------------------------------|
G|---------------------------------10--12b14-t17r-14r12---10-12p10----10--------------|
D|--10--8-12--12-10--7--8--14~-------------------------------------12----12-----------|
A|--------------------------------------------------------------------------10--12~\--|
E|------------------------------------------------------------------------------------|

e|----------------------------------------------------------|
B|----------------------------------------------------------|
G|----------------------------------------------------------|
D|-----------------------------------------------------11~--|
A|----10br10p8-----10br10p8-----10br10p8-----8--------------|
E|-------------10-----------10-----------10----8-/-10-------|

--------------------------------------------------------|
--------------------------------------------------------|
-------------------------------------------------/9~----|
--------------10----------------------------------------|
------8h10/12----12/10 8b-----------8h10-8-10-8---------|
-8h10---------------------10---8h10---------------------|


e|----------------------------------------------------|
B|----------------------------------------------------|
G|--9h10p9/7-9-7--/14-10~---12p10-10p9-10p9-7--/12-9~-|
D|----------------------------------------------------|
A|----------------------------------------------------|
E|----------------------------------------------------|

---------------------------------------------------|
------------------------------------------/14------|
--9h10p9/7-9-7--/14-10~--12p10-10p9-10p9--/14------|
---------------------------------------------------|
---------------------------------------------------|
---------------------------------------------------|




************************************

| /   slide up
| \   slide down
| h   hammer-on
| p   pull-off
| ~   vibrato
| +   harmonic
| x   Mute note
| b   Bend
| pb  Pre-bend
| br  Bend release
| pbr Pre-bend release
| brb Bend release bend

************************************
Suggest correction
Give kudos to tab author, rate the tab!
1 2 3 4 5
comments
print report bad tab
guest
You may want to rate the tab now too:
select rating
Wanna post a correction for this tab? Suggest correction