Oops, an error
Loading. Please wait.

3S And 7S Bass Tab

version 3
version 3

Whole song

Interactive

405 views 3 this week
no commentswrite comment
1 2 3 4 5
please rate
add to favorites
launch autoscroll
font size
0
reset
guitar tuner
Autoscroll
slow
fast
+/-
esc
set tempo
stop
Help us to improve Ultimate-Guitar.com Take our survey!
×
Difficulty
intermediate
-------------------------------------------------------------------------------
                             3's & 7's - Queens Of The Stone Age
-------------------------------------------------------------------------------
Tabbed by: Poinkypo
E-mail: 

Tuning: Standard

 Verse 1:
G|-------------------------------|
D|-----------6-6-6---6-----------| x12
A|-----4-----------6----8-----8--| 
E|--6-----6----------------8-----|
 
 Chorus:
G|----------------------|----------------------|
D|----------------------|----------------------| x2
A|----------------------|----------------------|
E|--0-0--2-2--4-4--0-0--|--0-0--2-2--4-4--4-4--|

G|--------------|
D|--------------| x1
A|--------------|
E|--5--5--5--5--|

 Verse 2:
G|-------------------------------|
D|-----------6-6-6---6-----------| x5
A|-----4-----------6----8-----8--| 
E|--6-----6----------------8-----|

G|-------------------------------|
D|-----------6-6-6---6-----7--8--| x1
A|-----4-----------6----8--------| 
E|--6-----6----------------------|

G|-------------------------------|
D|-----------6-6-6---6-----------| x6
A|-----4-----------6----8-----8--| 
E|--6-----6----------------8-----|

 Chorus:
G|----------------------|----------------------|
D|----------------------|----------------------| x2
A|----------------------|----------------------|
E|--0-0--2-2--4-4--0-0--|--0-0--2-2--4-4--4-4--|

G|--------------|
D|--------------| x1
A|--------------|
E|--5--5--5--5--|

 Breakdown:
G|-------------|-------------|-------------|-------------|-------------|-------------|
D|-------------|-------------|-------------|-------------|-------------|-------------|
A|-------------|-------------|-------------|-------------|-------------|--3--3-3--3--|
E|--1--1-1--1--|--4--4-4--4--|--3--3-3--3--|--6--6-6--6--|--5--5-5--5--|-------------|
G|-------------|-------------|
D|-------------|-------------| x3
A|--4--4-4--4--|--1--1-1--1--|
E|-------------|-------------|

G|-------------|-------------|-------------|-------------|-------------|-------------|
D|-------------|-------------|-------------|-------------|-------------|-------------| x1
A|-------------|-------------|-------------|-------------|-------------|--3--3-3--3--|
E|--1--1-1--1--|--4--4-4--4--|--3--3-3--3--|--6--6-6--6--|--5--5-5--5--|-------------|

G|-------------|-------------|---------------------------|
D|-------------|-------------|---------------------------| x3
A|--4--4-4--4--|--1--1-1--1--|---------------------------|
E|-------------|-------------|--1--1-1--1--|--1--1-1--1--|

G|-----------------------|
D|-----------------------| x1
A|--4-4-4-4--6--8-8-8-8--| 
E|-----------------------|

 Bass Solo:
G|-----------------------------|------------------------|
D|-----------6-6---6-----------|-----------6-6---6------|
A|-----4---------6----8-----8--|-----4---------6----8\--|
E|--6-----6--------------8-----|--6-----6---------------|

 Ending:
G|-------------------------------|
D|-----------6-6-6---6-----------| x7
A|-----4-----------6----8-----8--| 
E|--6-----6----------------8-----|

G|--------------------------|
D|-----------6-6-6---6------| x1
A|-----4-----------6----8\--| 
E|--6-----6-----------------|

| /  slide up
| \  slide down
| h  hammer-on
| p  pull-off
| ~  vibrato
| +  harmonic
| x  Mute note
===============================================================================
Suggest correction
What's this?
You can suggest a correction to this tab. Community and Mods will review your correction and vote to approve or reject it.
comments
We did not receive enough feedback on this tab! Please rate:
print report bad tab
1 2 3 4 5
guest
You may want to rate the tab now too:
select rating
Please do not post tabs as comments. Select "correction" instead!