Oops, an error
Loading. Please wait.

3S And 7S tab

version 3
version 3

Whole song

Interactive

425,155 views 546 this week
101 commentsread comments
1 2 3 4 5
x 212
add to favorites
×
Save as Personal and add changes to this tab that will be seen only by you. Learn more ›
×
You can save this tab as Personal to edit and correct it or add notes. All changes will be seen only by you. Learn more »
launch autoscroll
font size
0
reset
how to read this tab
guitar tuner
backing track
0:00
0:00
edit
Autoscroll
slow
fast
+/-
esc
set tempo
stop
Author
Difficulty
intermediate
3'S AND 7'S-QUEENS OF THE STONE AGE-ERA VULGARIS
Tabbed by:Frusciante_50
Standard Tuning

I have seen this tabbed well in C standard, but this is the best tab in standard tuning.
It took me a long time to figure out the solos, so please rate and comment on this. 



[Intro]


[Rhythm guitar riff]

e|--------------------------------------------------------------------------|
B|--------------------------------------------------------------------------|
G|--------------------6-6---------------------------------------------------|
D|-x-x-x-x--8-8--x-x--6-6--8-8--x-x--6-6--5--3--3---------------------------|
A|-x-x-x-x--8-8--x-x--4-4--8-8--x-x--6-6--3--3--3---------------------------|
E|-x-x-x-x--6-6--x-x-------6-6--x-x--4-4--3--1--1---------------------------|


[Lead guitar riff]

e|--------------------------------------------------------------------------|
B|--------------------------------------------------------------------------|
G|-20fb--18-----------------------------------------------------------------|
D|-----------20-------------------------------------------------------------|
A|---------------18--18fb--18--18fb--16-------------------------------------|
E|---------------------------------------18---------------------------------|

For the verses, use the above riffs


[Chorus]

[Rhythm part]

e|--------------------------------------------------------------------------|
B|--------------------------------------------------------------------------|
G|--------------------------------------------------------------------------|
D|--2-2----4-4----6-6----2-2----2-2----4-4----6-6----6-6--------------------| x2
A|--2-2----4-4----6-6----2-2----2-2----4-4----6-6----6-6--------------------|
E|--0-0----2-2----4-4----0-0----0-0----2-2----4-4----4-4--------------------|

before playing the solo play:

e|--------------|
B|--------------|
G|--------------|
D|--7--7--7--7--|
A|--7--7--7--7--|
E|--5--5--5--5--|


[Lead part]

e|----------------------------------------------|---------------------------|
B|-----4-2--4-5--4-----------2---2--4--2--------|-----4-2--4-5--4-5---------|
G|-4-3-------------4----4-3----4----------4--3--|-4-3----------------4-3----|
D|----------------------------------------------|---------------------------|
A|----------------------------------------------|---------------------------|
E|----------------------------------------------|---------------------------|

e|-------------------|
B|-2---2--4--2-------|
G|---4----------4--3-|
D|-------------------|
A|-------------------|
E|-------------------|


[Solo]

(after first chorus)

e|------------------------------------9-------------------------------------|
B|-------------------------------6------------------------9-------10--------|
G|-------------------------------8fb-----8fb--8-6--8p6----------------------|
D|-------------------6--------7-------------------------8----8h10-----------|
A|-6fb-4---6p4---4-----4----------------------------------------------------|
E|-------6-----6---6------6h8-----------------------------------------------|

Repeat verse and chorus riffs


[After second chorus]

e|--------------------------------------------------------------------------|
B|--------------------------------------------------------------------------|
G|--------------------------------------------------------------------------|
D|-3-3-3-3---6-6-6-6---5-5-5-5---8-8-8-8---7-7-7-7--10-10-10-10--11-11-10---|
A|-3-3-3-3---6-6-6-6---5-5-5-5---8-8-8-8---7-7-7-7--10-10-10-10--11-11-10---|
E|-1-1-1-1---4-4-4-4---3-3-3-3---6-6-6-6---5-5-5-5--8--8--8--8---9--9--8----|

e|-------------------|
B|-------------------|
G|-------------------|
D|-8-8---------------|
A|-8-8---------------|
E|-6-6---------------| Play section 4 times


[Lead up to bass interlude]

e|--------------------------------------------------------------------------|
B|--------------------------------------------------------------------------|
G|-----------------------------------------6-6-6-6-8-10-10-10-10-10---------|
D|-3-3-1------3--3-3-1-----3--3-3-1-----3-----------------------------------|
A|-------4-4--3--------4-4-3--------4-4-3-----------------------------------|
E|------------1------------1------------1-----------------------------------|

There is a bass interlude, and then the main [and most awesome] solo:

e|--------------------------------------------------------------------------|
B|-11----14p11--14p11-----11h14p11------11--16fb-13--13hb-13-11h13----11----|
G|-13fb----------------13-----------13-----------------------------13-------|
D|--------------------------------------------------------------------------|
A|--------------------------------------------------------------------------|
E|--------------------------------------------------------------------------|

e|--------------------------------------------------------------------------|
B|-----------------------------10-------------------------------------------|
G|-13fb-13---8--10-----8-------------10-10-10--8--11--10--------14----------|
D|-----------------11-----8h10----------------------------11-13-------------|
A|--------------------------------------------------------------------------|
E|--------------------------------------------------------------------------|

e|--------6-----------------------------------------------------------------|
B|--------------------------------------------------------------------------|
G|-6-8fb----8fb-8-6-6----6--------------------------------------------------|
D|--------------------------------------------------------------------------|
A|---------------------8----8--6-8---6fb-6-4-----6fb-6-4----6fb-6-4----4----|
E|--------------------------------------------6-----------6---------6-------|

e|--------------------------------------------------------------------------|
B|----------------------------------------------------------6---------------|
G|-----------------------------------------5---5h6p5p3h5------6-------------|
D|---------------------6---------------3------------------------------------|
A|-----7------4h6--6fb----4----4h6p4-----6---------------4------------------|
E|-6h8----4h6---------------6--------6--------------------------------------|

e|--------------------------------------------------------------------------|
B|--------------------------------------6-----------------------------------|
G|-8p6--8p6--8p6----8--5----5h6p5p3h5-----6---8p6--8p6--8-----5-------------|
D|--------------------------------------------------------------------------|
A|---------------8--------------------4--------------------8----------------|
E|--------------------------------------------------------------------------|



************************************

| x  Dead note
| h  Hammer-on
| p  Pull-off
| fb Full bend
| hb Half bend

************************************

            
            
Suggest correction
Creating personal tab
Creating personal tab
You can edit any tab online and save it as your Personal.

You can edit, replace or remove any tab part or add personal notes – all changes will be seen only by you.

Personal tabs can be accessed anytime from any device, even offline.
Learn more »
comments
print report bad tab
101 comments total. Showing first comments.
+10 reply
frusciante_50 517 Oct 23, 2007 11:42 AM

e|-----------------------------|
B|-----------------------------|
G|-----------------------------|
D|------5----------------------|
A|------3----------------------|
E|------3----------------------|

I have seen criticism for the intro, so use this chord, instead of the G power chord

+22 reply
mon_the_fraser 90 Oct 26, 2007 07:05 AM

Accurately denoted a superlative effort this guitarist is consortium of musical affluency

+6 reply
Rockdude_DK 113 Oct 29, 2007 11:51 AM

Great tab. Keep up the good work!

guest
You may want to rate the tab now too:
select rating
Wanna post a correction for this tab? Suggest correction