Oops, an error
Loading. Please wait.

3S And 7S Tab

version 4
version 4

Whole song

Interactive

12,275 views 45 this week
1 commentread comment
1 2 3 4 5
x 12
add to favorites
launch autoscroll
font size
0
reset
how to read this tab
guitar tuner
Autoscroll
slow
fast
+/-
esc
set tempo
stop
Help us to improve Ultimate-Guitar.com Take our survey!
×
Author
Difficulty
Tuning
intermediate
C F A# D# G C
----------------------------------------------------------------------------------------
                             3's and 7's - Queens of The Stone Age
-------------------------------------------------------------------------------
Tabbed by: millarso (Jake Miller)
E-mail: millarso2.0@gmail.com

Tuning: C Standard

Good job to Frusciante_50 for making a quality tab which allows everyone to
somewhat play the song in standard, but as far as recorded they must be tuned
to Standard C to get the low notes in the bridge to sound right. 

SECTION 1 - INTRO
Rhythm Guitar
c |-------------------------------------------|
G |-------------------------------------------|
D#|---------------10-10----------------9------|
A#|-xxxx-12-12-xx-10-10-12-12-xx-10-10-9-7--7-|
F |-xxxx-12-12-xx--8--8-12-12-xx-10-10-7-7--7-|
C |-xxxx-10-10-xx--8--8-10-10-xx--8--8-7-5--5-|

c |-----------------------------------------|
G |-----------------------------------------|
D#|---------------10-10----------------9----|
A#|-xxxx-12-12-xx-10-10-12-12-xx-10-10-9-7\-|
F |-xxxx-12-12-xx--8--8-12-12-xx-10-10-7-7\-|
C |-xxxx-10-10-xx--8--8-10-10-xx--8--8-7-5\-|

 SECTION 2
|Lead Guitar (Slide Solo)
|c |-/17---------------------------|
|G |-----/18-/15-------------------|
|D#|-------------12/14\12/14\10-\7-|
|A#|-------------------------------|x2
|F |-------------------------------|
|C |-------------------------------|
|
|Rhythm Guitar
|c |-------------------------------------------|
|G |-------------------------------------------|
|D#|---------------10-10----------------9------|
|A#|-xxxx-12-12-xx-10-10-12-12-xx-10-10-9-7--7-|x2
|F |-xxxx-12-12-xx--8--8-12-12-xx-10-10-7-7--7-|
|C |-xxxx-10-10-xx--8--8-10-10-xx--8--8-7-5--5-|

SECTION 3
Both Guitars
c |-------------------------------------------|
G |-------------------------------------------|
D#|---------------10-10----------------9------|
A#|-xxxx-12-12-xx-10-10-12-12-xx-10-10-9-7--7-|x8
F |-xxxx-12-12-xx--8--8-12-12-xx-10-10-7-7--7-|
C |-xxxx-10-10-xx--8--8-10-10-xx--8--8-7-5--5-|

REPEAT SECTION 2

 SECTION 4
|Lead Guitar (Possibly with an up octave pedal or 2 tracks an octave apart)
|c |---------------------------------------------------------10-------|
|G |-------------8-6------8-9-----8--------------6---6-8-6------8-6---|
|D#|-----8-7------------------------8----8-7-------9-------9--------8-|
|A#|------------------------------------------------------------------|
|F |------------------------------------------------------------------|
|C |------------------------------------------------------------------|
|
|Rhythm Guitar
|c |------------------------------------------------------------------|
|G |------------------------------------------------------------------|
|D#|------------------------------------------------------------------|
|A#|-6-6-----8-8-----1010-----6-6-----6-6-----8-8-----8-8-----1010----|
|F |-6-6-----8-8-----1010-----6-6-----6-6-----8-8-----8-8-----1010----|
|C |-4-4-----6-6------8-8-----4-4-----4-4-----6-6-----6-6------8-8----|

|Lead Guitar
|c |----------------------------------------------------10-----------|
|G |------------8-6-----8-9----8-9----------6---6-8-6--------8-6-5b6-|
|D#|----8-7--------------------------8-7------9-------9--------------|
|A#|-----------------------------------------------------------------|
|F |-----------------------------------------------------------------|
|C |-----------------------------------------------------------------|
|
|Rhythm Guitar
|c |--------------------------------------------------------------------|
|G |--------------------------------------------------------------------|
|D#|--------------------------------------------------------------------|
|A#|-6-6----8-8----1010----6-6----6-6----8-8----8-8----1010---10-11-----|
|F |-6-6----8-8----1010----6-6----6-6----8-8----8-8----1010---10-11(x8)-|
|C |-4-4----6-6-----8-8----4-4----4-4----6-6----6-6-----8-8----8--9-----|

 SECTION 5 - SOLO 1
|Lead Guitar
|c |-----------------------------------|
|G |-----------------------------------|
|D#|----------------------5-------6--6-|
|A#|-6b7--------5-----------3----------|
|F |------8--5----8p5h8-5-----5/7------|
|C |-----------------------------------|
|
|Rhythm Guitar
|c |-------------------------------------------|
|G |-------------------------------------------|
|D#|---------------10-10----------------9------|
|A#|-xxxx-12-12-xx-10-10-12-12-xx-10-10-9-7--7-|
|F |-xxxx-12-12-xx--8--8-12-12-xx-10-10-7-7--7-|
|C |-xxxx-10-10-xx--8--8-10-10-xx--8--8-7-5--5-|

|Lead Guitar
|c |-------13-------------------------------------------|
|G |-10-------10--------------------13----------14--14\-|
|D#|-12b14----14r12-10--12-10----10----12-10-12-14--14\-|
|A#|--(hold-bend)-------------12------------------------|
|F |----------------------------------------------------|
|C |----------------------------------------------------|
|
|Rhythm Guitar
|c |-------------------------------------------|
|G |-------------------------------------------|
|D#|---------------10-10----------------9------|
|A#|-xxxx-12-12-xx-10-10-12-12-xx-10-10-9-7--7-|
|F |-xxxx-12-12-xx--8--8-12-12-xx-10-10-7-7--7-|
|C |-xxxx-10-10-xx--8--8-10-10-xx--8--8-7-5--5-|

REPEAT SECTION 3

REPEAT SECTION 2 (x2), but replace the lead part in the 3rd repetition with...
Lead Guitar (Slide Solo)
c |-/17----------------------------|
G |-----/18-/15--------------------|
D#|-------------12/14\12/14\10-/14-|
A#|--------------------------------|
F |--------------------------------|
C |--------------------------------|

 SECTION 6 (nearly identical to SECTION 4)
|Lead Guitar
|c |-----------------------------------------------------10---10-11-|
|G |------------8-6-----8-9----8-------------6---6-8-6------8-------|
|D#|----8-7----------------------8----8-7------9-------9------------|
|A#|----------------------------------------------------------------|
|F |----------------------------------------------------------------|
|C |----------------------------------------------------------------|
|
|Rhythm Guitar
|c |-----------------------------------------------------------|
|G |-----------------------------------------------------------|
|D#|-----------------------------------------------------------|
|A#|-6-6----8-8----1010----6-6----6-6----8-8----8-8----1010----|
|F |-6-6----8-8----1010----6-6----6-6----8-8----8-8----1010----|
|C |-4-4----6-6-----8-8----4-4----4-4----6-6----6-6-----8-8----|

|Lead Guitar
|c |------------------------------11---------------------10---------|
|G |------------8-6-----8-9---8-9------------6---6-8-6------8-6-5b6-|
|D#|----8-7---------------------------8-7------9-------9------------|
|A#|----------------------------------------------------------------|
|F |----------------------------------------------------------------|
|C |----------------------------------------------------------------|
|
|Rhythm Guitar
|c |-------------------------------------------------------------------------|
|G |-------------------------------------------------------------------------|
|D#|-------------------------------------------------------------------------|
|A#|-6-6----8-8----1010----6-6----6-6----8-8----8-8----1010---1011-11-11-11\-|
|F |-6-6----8-8----1010----6-6----6-6----8-8----8-8----1010---1011-11-11-11\-|
|C |-4-4----6-6-----8-8----4-4----4-4----6-6----6-6-----8-8----8-9--9--9--9\-|

 SECTION 7
|Lead Guitar
|c |----------------------------------------------------------------------------------------|
|G |----------------------------------------------------------------------------------------|
|D#|----------------------------------------------------------------------------------------|
|A#|--------------------------------------------------------------7-7-7-7-7-----------------|x2
|F |-7----7---10---10----9----9----8--0-8--0-7--0-7--0-10--0-10-0-----------10-8-8-8-8-8-10-|
|C |-5--0-5--0-8--0-8--0-7--0-7--0----------------------------------------------------------|
|
|Rhythm Guitar
|c |-----------------------------------------------------------------------------------------|
|G |-----------------------------------------------------------------------------------------|
|D#|-----------------------------------------------------------------------------------------|
|A#|-----------------------------------------------------------------------------------------|x2
|F |-7----7---10---10----9----9----12----12--------------------------8-8-8-8-8-7-5-5-5-5-5-7-|
|C |-5--0-5--0-8--0-8--0-7--0-7--0-10--0-10--0-9--0-9--0-12--0-12--0-------------------------|

 SECTION 8
|Lead Guitar
|c |---------------------------------------------------------------------------|
|G |---------------------------------------------------------------------------|
|D#|---------------------------------------------------------------------------|
|A#|---------------------------------------------------------------------------|
|F |-1212--0-12--0-1010--0-10--0-99--0-9--0-88--0-10--0-77--0-7--0-10101010--0-|
|C |---------------------------------------------------------------------------|
|
|Rhythm Guitar
|c |---------------------------------------------------------------------------|
|G |---------------------------------------------------------------------------|
|D#|---------------------------------------------------------------------------|
|A#|---------------------------------------------------------------------------|
|F |---------------------------------------------------------------------------|
|C |-5-5-5-5--0-8-8-8-8--0-7-7-7-7--0-10-10-10-12--0-9-9-9-9--0-12-12-12-12--0-|

|Lead Guitar
|c |---------------------------|
|G |---------------------------|
|D#|---------------------------|
|A#|-7-7-7-7-7-----------------|
|F |-----------10-8-8-8-8-8-10-|
|C |---------------------------|
|
|Rhythm Guitar
|c |-------------------------|
|G |-------------------------|
|D#|-------------------------|
|A#|-------------------------|
|F |-8-8-8-8-8-7-5-5-5-5-5-7-|
|C |-------------------------|

REPEAT SECTION 8

 SECTION 9
|Lead Guitar
|c |------------------------------------------------------------------------|
|G |------------------------------------------------------------------------|
|D#|--------------------------------------------------10-10-10-10-10-9------|
|A#|---7----7-7-7-7-7----------------7----7-7-7-7-7--------------------7----|
|F |---7-------------10-8-8-8-8-8-10-7-------------10------------------7----|
|C |---5-----------------------------5---------------------------------5----|
|
|Rhythm Guitar
|c |------------------------------------------------------------------|
|G |------------------------------------------------------------------|
|D#|------------------------------------------------------------------|
|A#|---7----------------------------7----------------------------7----|
|F |---7----8-8-8-8-8-7-5-5-5-5-5-7-7----8-8-8-8-8-7-5-5-5-5-5-7-7----|
|C |---5----------------------------5----------------------------5----|
|
|Extra Guitar (Slide)
|c |------------------------------------------------------------------|
|G |------------------------------------------------------------------|
|D#|--2/6~------------------------2/6~-------------------------2/6~---|
|A#|------------------------------------------------------------------|
|F |------------------------------------------------------------------|
|C |------------------------------------------------------------------|

|Lead Guitar
|c |-------------------------------------|
|G |-------------------10-10-10-10-10-10-|
|D#|-10-10-10-10-10-12-------------------|
|A#|-------------------------------------|
|F |-------------------------------------|
|C |-------------------------------------|
|
|Rhythm Guitar
|c |-------------------------------------|
|G |-------------------------------------|
|D#|-------------------------------------|
|A#|-------------------------------------|
|F |--8-8-8-8-8-10-12-12-12-12-12-12-----|
|C |-------------------------------------|
|
|Extra/Slide Guitar
|c |-------------------------------------|
|G |--6-6-6-6-6-8/15-15-15-15-15-15------|
|D#|-------------------------------------|
|A#|-------------------------------------|
|F |-------------------------------------|
|C |-------------------------------------|

BASS SOLO

SECTION 10 - SOLO 2
Lead Guitar
c |--------------------------------------17-------|
G |-15------18-15--18-15---17h18p17---------17~---|
D#|-17b19------17b----17b----------19-17----------|
A#|-----------------------------------------------|
F |-----------------------------------------------|
C |-----------------------------------------------|

Rhythm Guitar (Don't play first 4 muted notes the first time through)
c |-------------------------------------------|
G |-------------------------------------------|
D#|---------------10-10----------------9------|
A#|-xxxx-12-12-xx-10-10-12-12-xx-10-10-9-7--7-|x8
F |-xxxx-12-12-xx--8--8-12-12-xx-10-10-7-7--7-|
C |-xxxx-10-10-xx--8--8-10-10-xx--8--8-7-5--5-|

Lead Guitar
c |---------------------------------------------------------|
G |-17b18--17-15h17p15--15--------13-15-------------14--14\-|
D#|-------------------17--pb19r17------12-14--------x---x---|
A#|-------------------------------------------12/14-14--14\-|
F |---------------------------------------------------------|
C |---------------------------------------------------------|

c |------------------------------------------------------------------------------|
G |-10--10-8-11---11-10--6-8/14--14\-----------15--------------------------------|
D#|--x---x-x--x----x--x--x-x--x---x------12b14----14r12--------------------------|
A#|-10--10-8-12---12-10--7-8/14--14\--15----------------15-15-12h15-12-----------|
F |--------------------------------------------------------------------10-12-12\-|
C |------------------------------------------------------------------------------|

c |--------------------------------------------------------------------------------|
G |--------------------------------------------------------------------------------|
D#|--------------------------------------------------------------------------------|
A#|---------------------------------------------------11----------7h10p7-----------|
F |-10b12-10p8----10b12-10p8----10b12-10p8----8---------------8h10------10-8b10----|
C |-----------10------------10------------10----10/12-----8h10------------------10-|

c |--------------------------------------------------------------------------------------|
G |--------------------------------------------------------------------------------------|
D#|----------------------------------------------------/14-------------------------------|
A#|------------------------11h12h14---14h15p14p12h14------15---17p14h15p14h15p14---17-14-|
F |-----8h10-12p1012p10-10---------------------------------------------------------------|
C |-8h10---------------------------------------------13-------------------------17-------|

c |-------------------------------------------------|
G |-------------------------------------------------|
D#|------------------/14-----------------------/18--|
A#|-14h15p14p12h14------15---17p14h15p14h15p14------|
F |-------------------------------------------------|
C |----------------13-------------------------------|

That should be all. I believe that this is a pretty good representation of
how they play it after some analysis.
I hope you enjoy. Please rate & comment.
Thanks,
millarso

************************************

| /   slide up
| \   slide down
| h   hammer-on
| p   pull-off
| ~   vibrato
| +   harmonic
| x   Mute note
| b   Bend
| pb  Pre-bend
| br  Bend release
| pbr Pre-bend release
| brb Bend release bend

************************************
Suggest correction
comments
print report bad tab
1 comment total.
0 reply
gol23 10 Nov 19, 2015 07:06 AM

Excellent Tab thx alot

guest
You may want to rate the tab now too:
select rating
Wanna post a correction for this tab? Suggest correction