Oops, an error
Loading. Please wait.

A Song For The Dead Tab

version 1
version 1

Whole song

Interactive

88,143 views 60 this week
4 commentsread comments
1 2 3 4 5
accurate
x 21
add to favorites
launch autoscroll
font size
0
reset
how to read this tab
guitar tuner
Autoscroll
slow
fast
+/-
esc
set tempo
stop
Help us to improve Ultimate-Guitar.com Take our survey!
×
Author
#----------------------------------PLEASE NOTE---------------------------------#
#This file is the author's own work and represents their interpretation of the #
#song. You may only use this file for private study, scholarship, or research. #
#------------------------------------------------------------------------------#

A SONG FOR THE DEAD
As recorded by Queens of the Stone Age
(From the 2002 Album SONGS FOR THE DEAF)

Transcribed by GasPanic
        

Music by Queens of the Stone Age

E+
x 7 8 9 x x
        
F+
x 8 9 10 x x

Gtr I (C F Bb Eb G C) - 'Untitled'
Gtr II (C F Bb Eb G C) - 'Untitled'
Gtr III (C F Bb Eb G C) - 'Untitled'
Gtr IV (C F Bb Eb G C) - 'Untitled'

[Intro]

  Q=206
  E+
 4/4
  Gtr IV
  W          +W           +W
e|----------|------------|--------|
B|----------|------------|--------|
G|-9--------|-(9)--------|-(9)----|
D|-8--------|-(8)--------|-(8)----|
A|-7--------|-(7)--------|-(7)----|
E|----------|------------|--------|


   E+                                                N.C.
   +W           +W           +W           +H.        Q
e|------------|------------|------------|---------------|
B|------------|------------|------------|---------------|
G|-(9)--------|-(9)--------|-(9)--------|-(9)-----------|
D|-(8)--------|-(8)--------|-(8)--------|-(8)-----------|
A|-(7)--------|-(7)--------|-(7)--------|-(7)-----------|
E|------------|------------|------------|---------------|
|
 |                                               Gtr I
 |  W            W            W            H      Q  Q
e|------------|------------|------------|---------------|
B|------------|------------|------------|---------------|
G|------------|------------|------------|---------------|
D|------------|------------|------------|---------------|
A|------------|------------|------------|---------------|
E|------------|------------|------------|--------12S=0--|


     N.C.
     Gtr I
      E  E Q   E  E E E    E  E Q   E  E Q   7x
e|---------------------|--------------------||
B|o--------------------|-------------------o||
G|---------------------|--------------------||
D|---------------------|--------------------||
A|o--------------------|-------------------o||
E|--<5>-0-0--<5>-0-0-0-|-<5>-0-0--<5>-0-0---||


   N.C.
    E  E Q   E  E E E    E  E E E  E  E Q
e|--------------------|--------------------|
B|--------------------|--------------------|
G|--------------------|--------------------|
D|--------------------|--------------------|
A|--------------------|--------------------|
E|-<5>-0-0--<5>-0-0-0-|-<5>-0-0-0-<5>-0-0--|


    E  E Q   E  E Q     E  E E E  E  E Q
e|-------------------|--------------------|
B|-------------------|--------------------|
G|-------------------|--------------------|
D|-------------------|--------------------|
A|-------------------|--------------------|
E|-<5>-0-0--<5>-0-0--|-<5>-0-0-0-<5>-0-0--|


   N.C.
    E  E Q   E  E  E  E   E E  E  E  E  E E E
e|----------------------|---------------------|
B|----------------------|---------------------|
G|----------------------|---------------------|
D|----------------------|---------------------|
A|----------------------|---------------------|
E|-<5>-0-0--<5>-0-<5>-0-|-0-0-<5>-0-<5>-0-0-0-|


    E  E  E  E E E  E  E    E  E E E  E  E  E  E
e|-----------------------|-----------------------|
B|-----------------------|-----------------------|
G|-----------------------|-----------------------|
D|-----------------------|-----------------------|
A|-----------------------|-----------------------|
E|-<5>-0-<5>-0-0-0-<5>-0-|-<5>-0-0-0-<5>-0-<5>-0-|


   N.C.
  4/4
   Q   E  E Q   E  E   Q   E  E Q   E  E   E E  E  E Q   E  E
e|-------------------|-------------------|--------------------|
B|-------------------|-------------------|--------------------|
G|-------------------|-------------------|--------------------|
D|-------------------|-------------------|--------------------|
A|-------------------|-------------------|--------------------|
E|-0--<5>-0-0--<5>-0-|-0--<5>-0-0--<5>-0-|-0-0-<5>-0-0--<5>-0-|


   Q   E  E Q   E  E   Q   E  E Q   E  E
e|-------------------|---------------------|
B|-------------------|---------------------|
G|-------------------|---------------------|
D|-------------------|---------------------|
A|-------------------|---------------------|
E|-0--<5>-0-0--<5>-0-|-0--<5>-0-0--<5>-0---|


     Q=211
     N.C.
     Gtrs I, II
     Q   E  E Q   E  E   E E  E  E Q   E  E   Q   E  E Q   E  E
e|--------------------|--------------------|-------------------|
B|o-------------------|--------------------|-------------------|
G|--------------------|--------------------|-------------------|
D|--------------------|--------------------|-------------------|
A|o-------------------|--------------------|-------------------|
E|--0--<5>-0-0--<5>-0-|-0-0-<5>-0-0--<5>-0-|-0--<5>-0-0--<5>-0-|


  1.,2.,3.                4.
   E E  E  E Q   E  E  4x E E  E  E Q   Q
e|---------------------||---------------------|
B|--------------------o||---------------------|
G|---------------------||---------------------|
D|---------------------||---------------------|
A|--------------------o||---------------------|
E|-0-0-<5>-0-0--<5>-0--||-0-0-<5>-0-0--<5>----|


   N.C.
   Gtrs I, III
   H    H      H    H
e|-----------|---------------||
B|-----------|---------------||
G|-----------|---------------||
D|-----------|---------------||
A|-----------|---------------||
E|-0----0----|-0----0--------||
|
 | Gtr II
 | H    H      H    H     a
e|-----------|---------------||
B|-----------|---------------||
G|-----------|---------------||
D|-----------|------9s===14--||
A|-----------|---------------||
E|-0----0----|-0----0----(0)-||


  Pre-Verse
   Q=106
   N.C.
   Gtr III
   W                 H       E  S  s  Q
e|-----------------|---------------------|
B|-----------------|---------------------|
G|-----------------|-----------13s15-12--|
D|-----------------|---------------------|
A|-----------------|---------------------|
E|-----------------|---------------------|
 |
 | Gtr II
 |      ~~      ~~        ~~
 | E E  Q  E E  Q    E E  Q  H
e|-----------------|---------------------|
B|-----------------|---------------------|
G|-----------------|---------------------|
D|-----14------15--|-----14--------------|
A|-----13------14--|-----13--------------|
E|-0-0-----0-0-----|-0-0-----------------|


   W                 W
e|-----------------|-----------------------|
B|-----------------|-----------------------|
G|-----------------|-----------------------|
D|-----------------|-----------------------|
A|-----------------|-----------------------|
E|-----------------|-----------------------|
 |
 |      ~~      ~~        ~~
 | E E  Q  E E  Q    E E  Q  E   S   s  Q
e|-----------------|-----------------------|
B|-----------------|-----------(15)s17-----|
G|-----------------|------------14s=16-12--|
D|-----14------15--|-----14----------------|
A|-----13------14--|-----13----------------|
E|-0-0-----0-0-----|-0-0-------------------|


   N.C.
   W                 H        S  S  E  S  S  E
e|-----------------|---------------------------|
B|-----------------|---------------------------|
G|-----------------|---------------------------|
D|-----------------|---------------12-14p12----|
A|-----------------|---------12-14----------14-|
E|-----------------|---------------------------|
 |
 |      ~~      ~~        ~~
 | E E  Q  E E  Q    E E  Q   H
e|-----------------|---------------------------|
B|-----------------|---------------------------|
G|-----------------|---------------------------|
D|-----14------15--|-----14--------------------|
A|-----13------14--|-----13--------------------|
E|-0-0-----0-0-----|-0-0-----------------------|


   W                 H       E  S  S  S  E.
e|-----------------|-------------------------||
B|-----------------|-------------------------||
G|-----------------|-------------------------||
D|-----------------|-------------------------||
A|-----------------|------------2s=5--2s10---||
E|-----------------|-------------------------||
 |
 |      ~~      ~~        ~~
 | E E  Q  E E  Q    E E  Q  E  S  S  S  E.
e|-----------------|-------------------------||
B|-----------------|-------------------------||
G|-----------------|-------------------------||
D|-----14------15--|-----14------------------||
A|-----13------14--|-----13----12s14-12s17---||
E|-0-0-----0-0-----|-0-0---------------------||


[Verse]

   N.C.
   Gtr III
   W                 W
e|-----------------|----------------------|
B|-----------------|----------------------|
G|-----------------|----------------------|
D|-----------------|----------------------|
A|-----------------|----------------------|
E|-----------------|----------------------|
 |
 | Gtr II
 |      ~~      ~~        ~~
 | E E  Q  E E  Q    E E  Q  E S  s a  Q
e|-----------------|----------------------|
B|-----------------|----------------------|
G|-----------------|-----------9s14-9s12--|
D|-----14------15--|-----14---------------|
A|-----13------14--|-----13---------------|
E|-0-0-----0-0-----|-0-0------------------|


   W                 H        S  S  S  S  S  S  E
e|-----------------|-------------------------------|
B|-----------------|-------------------------------|
G|-----------------|-------------------------------|
D|-----------------|---------------12----14p12-----|
A|-----------------|---------12-14----14-------14--|
E|-----------------|-------------------------------|
 |
 |      ~~      ~~        ~~
 | E E  Q  E E  Q    E E  Q   H
e|-----------------|-------------------------------|
B|-----------------|-------------------------------|
G|-----------------|-------------------------------|
D|-----14------15--|-----14------------------------|
A|-----13------14--|-----13------------------------|
E|-0-0-----0-0-----|-0-0---------------------------|


   N.C.
   W                 W
e|-----------------|--------------------------|
B|-----------------|--------------------------|
G|-----------------|--------------------------|
D|-----------------|--------------------------|
A|-----------------|--------------------------|
E|-----------------|--------------------------|
 |
 |      ~~      ~~        ~~
 | E E  Q  E E  Q    E E  Q  E  E     +S   E.
e|-----------------|----------------------15--|
B|-----------------|--------------------------|
G|-----------------|-----------15b16-(15)-15--|
D|-----14------15--|-----14-------------------|
A|-----13------14--|-----13-------------------|
E|-0-0-----0-0-----|-0-0----------------------|


                                    ~~~
   W                 H        S  S  E.  S  E
e|-----------------|--------------------------|
B|-----------------|---------15---------------|
G|-----------------|------------15-13---------|
D|-----------------|-------------------12-----|
A|-----------------|----------------------14--|
E|-----------------|--------------------------|
 |
 |      ~~      ~~        ~~
 | E E  Q  E E  Q    E E  Q   H
e|-----------------|--------------------------|
B|-----------------|--------------------------|
G|-----------------|--------------------------|
D|-----14------15--|-----14-------------------|
A|-----13------14--|-----13-------------------|
E|-0-0-----0-0-----|-0-0----------------------|


   N.C.
   W                 H        S  S  S  S  S  S  +E
e|-----------------|-----------------------------------|
B|-----------------|-----------------------------------|
G|-----------------|---------------13-15-13-15-(15)b16-|
D|-----------------|------------12---------------------|
A|-----------------|---------14------------------------|
E|-----------------|-----------------------------------|
 |
 |      ~~      ~~        ~~
 | E E  Q  E E  Q    E E  Q   H
e|-----------------|-----------------------------------|
B|-----------------|-----------------------------------|
G|-----------------|-----------------------------------|
D|-----14------15--|-----14----------------------------|
A|-----13------14--|-----13----------------------------|
E|-0-0-----0-0-----|-0-0-------------------------------|


   W                 H        S  S  S  S  S  E.
e|-----------------|-----------------------------|
B|-----------------|---------15-12----12---------|
G|-----------------|---------------14----15-12---|
D|-----------------|-----------------------------|
A|-----------------|-----------------------------|
E|-----------------|-----------------------------|
 |
 |      ~~      ~~        ~~
 | E E  Q  E E  Q    E E  Q   H
e|-----------------|-----------------------------|
B|-----------------|-----------------------------|
G|-----------------|-----------------------------|
D|-----14------15--|-----14----------------------|
A|-----13------14--|-----13----------------------|
E|-0-0-----0-0-----|-0-0-------------------------|


   N.C.
   W                 H       E   E   E    E
e|-----------------|---------------------------|
B|-----------------|---------------------------|
G|-----------------|---------------------------|
D|-----------------|---------------------------|
A|-----------------|---------------------------|
E|-----------------|---------2b3-5b7-7b9-10b12-|
 |
 |      ~~      ~~        ~~
 | E E  Q  E E  Q    E E  Q  H
e|-----------------|---------------------------|
B|-----------------|---------------------------|
G|-----------------|---------------------------|
D|-----14------15--|-----14--------------------|
A|-----13------14--|-----13--------------------|
E|-0-0-----0-0-----|-0-0-----------------------|


   W                 W
e|-----------------|-------------------||
B|-----------------|-------------------||
G|-----------------|-------------------||
D|-----------------|-------------------||
A|-----------------|-------------------||
E|-----------------|-------------------||
 |
 |      ~~      ~~        ~~
 | E E  Q  E E  Q    E E  Q  a H
e|-----------------|-------------------||
B|-----------------|-------------------||
G|-----------------|-------------------||
D|-----14------15--|-----14--7s9b12----||
A|-----13------14--|-----13------------||
E|-0-0-----0-0-----|-0-0---------------||


[Chorus]

    $                                                          To Coda
    $$                                                         To Coda
    N.C.              G5                      D5          Eb5
    Gtr III
         ~~      ~~~
    E E  Q  E E  Q     S  S  S  S  S  S  S  S  S  S  S  S  S  S  S  S   4x
e|------------------|---------------------------------------------------||
B|o-----------------|--------------------------------------------------o||
G|------------------|-12-12-12-12-12-12-12-12---------------------------||
D|------14------15S=|=12-12-12-12-12-12-12-12-12-12-12-12-13-13-13-13---||
A|o-----13------14S=|=10-10-10-10-10-10-10-10-12-12-12-12-13-13-13-13--o||
E|--0-0-----0-0-----|-------------------------10-10-10-10-11-11-11-11---||
 |
 |   Gtr II
 |        ~~      ~~~               ~~                      ~~
 |   E E  Q  E E  Q     E     E     Q           E     E     Q            4x
e|------------------|---------------------------------------------------||
B|o-----------------|--------------------------------------------------o||
G|------------------|---------------------------------------------------||
D|------14------15--|-------------12----------------------13------------||
A|o-----13------14--|-------------12----------------------13-----------o||
E|--0-0-----0-0-----|--0-----0-----------------0-----0------------------||


[Pre-Verse 2]

   Q=104
   N.C.
   Gtr III
   W                 H        E   E  Q
e|-----------------|----------------------||
B|-----------------|----------------------||
G|-----------------|----------------------||
D|-----------------|----------------------||
A|-----------------|-----------------8b9--||
E|-----------------|----------8-/11-------||
 |
 | Gtr II
 |      ~~      ~~        ~~~~~~~~~~~~~~~
 | E E  Q  E E  Q    E E  Q   E   E  Q
e|-----------------|----------------------||
B|-----------------|----------------------||
G|-----------------|----------------------||
D|-----14------15--|-----14---------------||
A|-----13------14--|-----13------11-------||
E|-0-0-----0-0-----|-0-0-----10-----10----||


[Verse 2]

   N.C.
   Gtr III
   W                 W
e|-----------------|--------------------|
B|-----------------|--------------------|
G|-----------------|--------------------|
D|-----------------|--------------------|
A|-----------------|--------------------|
E|-----------------|--------------------|
 |
 | Gtr II
 |      ~~      ~~        ~~
 | E E  Q  E E  Q    E E  Q  E S  s  Q
e|-----------------|--------------------|
B|-----------------|--------------------|
G|-----------------|-----------9s14-12--|
D|-----14------15--|-----14-------------|
A|-----13------14--|-----13-------------|
E|-0-0-----0-0-----|-0-0----------------|


   W                 H        S  S  S  S  Q
e|-----------------|---------19------------------|
B|-----------------|------------17---------------|
G|-----------------|---------------16----18b19---|
D|-----------------|-----------------------------|
A|-----------------|------------------19---------|
E|-----------------|-----------------------------|
 |
 |      ~~      ~~        ~~
 | E E  Q  E E  Q    E E  Q   H
e|-----------------|-----------------------------|
B|-----------------|-----------------------------|
G|-----------------|-----------------------------|
D|-----14------15--|-----14----------------------|
A|-----13------14--|-----13----------------------|
E|-0-0-----0-0-----|-0-0-------------------------|


   N.C.
   Gtr II
        ~~      ~~        ~~
   E E  Q  E E  Q    E E  Q   S  S  S  S  Q
e|-----------------|---------19-------15--------|
B|-----------------|------------17s13-----------|
G|-----------------|---------------------14b16--|
D|-----14------15--|-----14---------------------|
A|-----13------14--|-----13---------------------|
E|-0-0-----0-0-----|-0-0------------------------|


                                            D.S. al Coda
        ~~      ~~        ~~
   E E  Q  E E  Q    E E  Q   S  T  T  S  S  S  S  S  S
e|-----------------|--------------------------------------||
B|-----------------|---------12-12-12p11-12-11------------||
G|-----------------|---------------------------12---------||
D|-----14------15--|-----14-----------------------14-12---||
A|-----13------14--|-----13-------------------------------||
E|-0-0-----0-0-----|-0-0----------------------------------||


[Solo]

  Q=106
  &
  N.C.
  Gtr III
  E E H     Q         +Q    +Q    +Q    +Q
e|----------12------|-(12)--(12)--(12)--(12)--|
B|----------15b17===|=(15)--(15)r=(15)--(15)--|
G|------------------|-------------------------|
D|------------------|-------------------------|
A|------------------|-------------------------|
E|-0----------------|-------------------------|


    TP       TP
    Q       +Q    +Q     +Q          +Q    S  S  S  S  S  S  S  S  S  S  S  S
e|-12------(12)--(12)---(12)------|-------------------------------------------|
B|-15b17===(15)--(15)r--(15)pb17r=|=(15)--12-15----12----12-15----12-15----12-|
G|--------------------------------|-------------14----14-------14-------14----|
D|--------------------------------|-------------------------------------------|
A|--------------------------------|-------------------------------------------|
E|--------------------------------|-------------------------------------------|


  Q=110
  E+                      F+
  Gtr IV
   H                       H
   |                       |
   /                       /

  Gtr III
                                             |--3--|
   S  S  S  S  S  S  S  S  S  S  S  S  S  S  S  S  S
----------------------------------------------------|
-15----12-15----12-15----12-15----12----12-15p12----|
----14-------14-------14-------14----14----------14-|
----------------------------------------------------|
----------------------------------------------------|
----------------------------------------------------|
 |
 | Gtr II
 |  W
e|----------------------------------------------------|
B|----------------------------------------------------|
G|----------------------------------------------------|
D|----------------------------------------------------|
A|----------------------------------------------------|
E|----------------------------------------------------|


  E+
   W
   |
   /

    S   S  S  S  E     S  S  H
e|--------------------------------------|
B|-15-----------------------------------|
G|-----14-12-14-14b16-12-14-12----------|
D|--------------------------------------|
A|--------------------------------------|
E|--------------------------------------|
 |
 |                              Gtr II
 |  H.                           a S E.
e|------------------------------15p0-0--|
B|--------------------------------------|
G|--------------------------------------|
D|--------------------------------------|
A|--------------------------------------|
E|--------------------------------------|


  E+            F+               E+
   H            H                 W
   |            |                 |
   /            /                 /

  Gtr II
                                              |--3--|               |--3--|
   +Q    a  S  Q    a S Q.      a  S  Q   +S   S  S  S  E       +E   E  E  E
-(0)--15p12------15p0-0----|-15p12----------15-15-15-15b18.5-(15)-15-12-15-|
------------12-------------|-------12--(12)-12-12-12-----------------------|
---------------------------|-----------------------------------------------|
---------------------------|-----------------------------------------------|
---------------------------|-----------------------------------------------|
---------------------------|-----------------------------------------------|


  E+                        F+
   H                        H
   |                        |
   /                        /

   Gtr III
    W
e|------------------------------------------------------|
B|------------------------------------------------------|
G|------------------------------------------------------|
D|------------------------------------------------------|
A|------------------------------------------------------|
E|------------------------------------------------------|
 |
 | Gtr II
 |             |----3----|           |--3--|
 |  E     +E.  S..  S..  S..    E..  S  S  S  +T   S  T
-15b19-(15)-15---12---15-----12---15p13---------13----|
----------------------------------------15-(15)----15-|
------------------------------------------------------|
------------------------------------------------------|
------------------------------------------------------|
------------------------------------------------------|


  E+
    W
    |
    /
     H..                                            E
e|-----------------------------------------------------|
B|-----------------------------------------------------|
G|-----------------------------------------------------|
D|-----------------------------------------------------|
A|-------------------------------------------------/7--|
E|-----------------------------------------------------|
 |
 |                                           ~
 |  +E.   S  T.  S  X  S  T      +T      +S  Q  E.
e|-------------------------------------------9--x\-----|
B|-(15)--12-15--12-10h12-10pb12r(10)b12-(10)-----------|
G|-----------------------------------------------------|
D|-----------------------------------------------------|
A|-----------------------------------------------------|
E|-----------------------------------------------------|


  E+        F+        E+
   H        H         W
   |        |         |
   /        /         /
   +E. E E S Q  Q      Q   E Q.    S. T  S. T
e|-------------------|------------------------|
B|-------------------|------------------------|
G|-------------------|------------------------|
D|--------------5b6--|------------------------|
A|-(7)-5-7-5-7-------|-7---5-7-----5-----7----|
E|-------------------|------------------------|
 |
 |  W                  H.          S. T  S. T
e|-------------------|------------------------|
B|-------------------|------------------------|
G|-------------------|------------------------|
D|-------------------|------------12----14----|
A|-------------------|------------------------|
E|-------------------|------------------------|


  E+                      F+           E+
   H                       H            W
   |                       |            |
   /                       /            /

    S. T  S. T  S. T  S. T  Q      Q     S. T  S. T  S. T  S. T  Q      Q
e|------------------------------------|------------------------------------|
B|------------------------------------|------------------------------------|
G|------------------------------------|------------------------------------|
D|--5-----------------------7b9----5--|--5-----------------------7b9----5--|
A|--------7-----5-----7---------------|--------7-----5-----7---------------|
E|------------------------------------|------------------------------------|
 |
 |  S. T  S. T  S. T  S. T  Q      Q     S. T  S. T  S. T  S. T  Q      Q
e|------------------------------------|------------------------------------|
B|------------------------------------|------------------------------------|
G|-12----------------------14b16--12--|-12----------------------14b16--12--|
D|-------14----12----14---------------|-------14----12----14---------------|
A|------------------------------------|------------------------------------|
E|------------------------------------|------------------------------------|


  E+                   F+
   H                     H
   |                     |
   /                     /

  Gtr II
                         |--3---|
   S  S     +S   S  Q   +E   E  E  Q
-------------------------------------|
-------------------------------------|
-12-14b16-(14)-12-11--(11)-11-12-11--|
-------------------------------------|
-------------------------------------|
-------------------------------------|


  E+
   W
   |
   /

                     |--3--|
   T  T  T  T  S  S  E  E  E  Q   S  S  E
-----------------------------------------|
-----------------------------------------|
-11-11h12p11----11-----------------------|
-------------14----14-12-14-12--12-14-14-|
-----------------------------------------|
-----------------------------------------|


  E+               F+                  E+
    H              H                    W
    |              |                    |
    /              /                    /

                 ~~
                                                     |--3--|
   +E   S  E  E  Q    +S   S  E   S     S  E  E.  E  E  E  E  S  S  S  S
------------------------------------|-----------------------------------|
------13h17-------------------------|-----------------------------------|
---------------14---(14)----16--16--|--------------------------------11-|
-(14)-------14-----------14----(14)-|-12s14-14--16-17-14-16-17-14-14----|
------------14-----------14----(14)-|-------14--------------------------|
------------------------------------|-----------------------------------|


  E+                      F+
   H                       H
   |                       |
   /                       /

   Gtr III
    W
e|-------------------------------------------------------|
B|-------------------------------------------------------|
G|-------------------------------------------------------|
D|-------------------------------------------------------|
A|-------------------------------------------------------|
E|-------------------------------------------------------|
 |
 | Gtr II
 |  S  S  S  S  S  S  S  S  S  S  S  S  S  T.  S  +X   S
e|-------------------------------------------------------|
B|-------------------------------------------------------|
G|-------------------------------------------------------|
D|-14-12s14-14-14-16-14-14-16-14-16-17-14-16--17-(17)-14-|
A|-------------------------------------------------------|
E|-------------------------------------------------------|


  E+
   W
   |
   /

    H                                  H
e|---------------------------------------------------------------------------------||
B|---------------------------------------------------------------------------------||
G|---------------------------------------------------------------------------------||
D|-------------------------------------9b13.5--------------------------------------||
A|---------------------------------------------------------------------------------||
E|---------------------------------------------------------------------------------||
 |
 |  S  S  S  S  T.  T.  T.  T  T  T  T         T  T  T  T  T  T  T X X X X X +E.
e|---------------------------------------------------------------------------------||
B|---------------------------------------------------------------------------------||
G|----------14---------16--------19-16--------19-16-19-16-18-15-15-x-x-x-x-9-(9)\--||
D|-14----14--------14---------14---------------------------------------------------||
A|----14-------14----------14------------------------------------------------------||
E|---------------------------------------------------------------------------------||


[Pre-Verse 3]

   Q=106
   N.C.
   Gtr III
   W                 H        H    a
e|-----------------|-----------------|
B|-----------------|-----------------|
G|-----------------|-----------------|
D|-----------------|-----------------|
A|-----------------|-----------------|
E|-----------------|---------10s===7-|
 |
 | Gtr II
 |      ~~      ~~        ~~
 | E E  Q  E E  Q    E E  Q   H
e|-----------------|-----------------|
B|-----------------|-----------------|
G|-----------------|-----------------|
D|-----14------15--|-----14----------|
A|-----13------14--|-----13----------|
E|-0-0-----0-0-----|-0-0-------------|


   W                 W
e|-----------------|----------------------------|
B|-----------------|----------------------------|
G|-----------------|----------------------------|
D|-----------------|----------------------------|
A|-----------------|----------------------------|
E|-----------------|----------------------------|
 |
 |      ~~      ~~        ~~
 |                            |--3--|  |--3--|
 | E E  Q  E E  Q    E E  Q   E  E  E  E  E  E
-----------------|---------------15-----------|
-----------------|------------------14-12-15--|
-----------------|----------------------------|
-----14------15--|-----14--12-14--------------|
-----13------14--|-----13---------------------|
-0-0-----0-0-----|-0-0------------------------|


   Gtr II
        ~~      ~~        ~~                 ~~      ~~        ~~
   E E  Q  E E  Q    E E  Q   H         E E  Q  E E  Q    E E  Q  H
e|-----------------|------------------|-----------------|--------------||
B|-----------------|------------------|-----------------|--------------||
G|-----------------|------------------|-----------------|--------------||
D|-----14------15--|-----14-----------|-----14------15--|-----14-------||
A|-----13------14--|-----13-----------|-----13------14--|-----13-------||
E|-0-0-----0-0-----|-0-0-----/8b10----|-0-0-----0-0-----|-0-0----------||


   N.C.
  5/4
   W            W
e|------------|------||
B|------------|------||
G|------------|------||
D|------------|------||
A|------------|------||
E|------------|------||


[Verse 3]

   N.C.
  4/4
   Gtr III
   W                 H       E  E     +Q     W                 W
e|-----------------|-----------------------|-----------------|--------------|
B|-----------------|-----------15b18r(15)--|-----------------|--------------|
G|-----------------|-----------------------|-----------------|--------------|
D|-----------------|-----------------------|-----------------|--------------|
A|-----------------|-----------------------|-----------------|--------------|
E|-----------------|-----------------------|-----------------|--------------|
 |
 | Gtr II
 |      ~~      ~~        ~~                      ~~      ~~        ~~
 | E E  Q  E E  Q    E E  Q  H               E E  Q  E E  Q    E E  Q  H
e|-----------------|-----------------------|-----------------|--------------|
B|-----------------|-----------------------|-----------------|--------------|
G|-----------------|-----------------------|-----------------|--------------|
D|-----14------15--|-----14----------------|-----14------15--|-----14-------|
A|-----13------14--|-----13----------------|-----13------14--|-----13-------|
E|-0-0-----0-0-----|-0-0-------------------|-0-0-----0-0-----|-0-0----------|


  N.C.
  Gtr II
       ~~      ~~        ~~
                             |---3----|  |--3--|  |--3--|
   E E  Q  E E  Q    E E  Q   S  S  T  T  S  S  S  S  S  S  E
e|-----------------|------------------------------------------|
B|-----------------|---------14-15-14-12-14-12-14-12-11-------|
G|-----------------|------------------------------------------|
D|-----14------15--|-----14--------------------------------14-|
A|-----13------14--|-----13-----------------------------------|
E|-0-0-----0-0-----|-0-0--------------------------------11----|


                 D.S.S. al Dbl. Coda
        ~~      ~~        ~~  TP
   E E  Q  E E  Q    E E  Q   H      a
e|-----------------|---------------------||
B|-----------------|---------------------||
G|-----------------|---------(x)s===(x)--||
D|-----14------15--|-----14---9s====14---||
A|-----13------14--|-----13--(x)s===(x)--||
E|-0-0-----0-0-----|-0-0-----------------||


[Breakdown]

  &&
  N.C.
  Gtrs II, III
   \4.5___________/
   W              W        a
e|---------------|------------|
B|---------------|------------|
G|---------------|------------|
D|---------------|------------|
A|-15------------|-8--------x-|
E|-13------------|-6--------x-|


[Outro]

     Q=216
     N.C.
     Gtrs I, II, III
     Q   E  E Q   E  E   E E  E  E Q   E  E
e|--------------------|--------------------|
B|o-------------------|--------------------|
G|--------------------|--------------------|
D|--------------------|--------------------|
A|o-------------------|--------------------|
E|--0--<5>-0-0--<5>-0-|-0-0-<5>-0-0--<5>-0-|


   Q   E  E Q   E  E   E E  E  E Q   E  E   5x
e|-------------------|----------------------||
B|-------------------|---------------------o||
G|-------------------|----------------------||
D|-------------------|----------------------||
A|-------------------|---------------------o||
E|-0--<5>-0-0--<5>-0-|-0-0-<5>-0-0--<5>-0---||


   N.C.
   Q   E  E Q   E  E   E E  E  E Q   E  E
e|-------------------|--------------------|
B|-------------------|--------------------|
G|-------------------|--------------------|
D|-------------------|--------------------|
A|-------------------|--------------------|
E|-0--<5>-0-0--<5>-0-|-0-0-<5>-0-0--<5>-0-|


   Q   E  E Q   E  E   E E  E  E E E  E  E
e|-------------------|---------------------|
B|-------------------|---------------------|
G|-------------------|---------------------|
D|-------------------|---------------------|
A|-------------------|---------------------|
E|-0--<5>-0-0--<5>-0-|-0-0-<5>-0-0-0-<5>-0-|


   N.C.
   Q  H.        W          W          W
e|------------|----------|----------|------|
B|------------|----------|----------|------|
G|------------|----------|----------|------|
D|------------|----------|----------|------|
A|------------|----------|----------|------|
E|-0----------|----------|----------|------|


   N.C.
   Q   E  E Q   E  E   E E  E  E Q   E  E
e|-------------------|--------------------|
B|-------------------|--------------------|
G|-------------------|--------------------|
D|-------------------|--------------------|
A|-------------------|--------------------|
E|-0--<5>-0-0--<5>-0-|-0-0-<5>-0-0--<5>-0-|


   Q   E  E Q   E  E   E E  E  E Q   E  E
e|-------------------|--------------------|
B|-------------------|--------------------|
G|-------------------|--------------------|
D|-------------------|--------------------|
A|-------------------|--------------------|
E|-0--<5>-0-0--<5>-0-|-0-0-<5>-0-0--<5>-0-|


   N.C.
   Q   E  E Q   E  E   E E  E  E Q   E  E
e|-------------------|--------------------|
B|-------------------|--------------------|
G|-------------------|--------------------|
D|-------------------|--------------------|
A|-------------------|--------------------|
E|-0--<5>-0-0--<5>-0-|-0-0-<5>-0-0--<5>-0-|


   Q   E  E Q   E  E   E E  E  E  E  E  E  E
e|-------------------|-----------------------|
B|-------------------|-----------------------|
G|-------------------|-----------------------|
D|-------------------|-----------------------|
A|-------------------|-----------------------|
E|-0--<5>-0-0--<5>-0-|-0-0-<5>-0-<5>-0-<5>-0-|


     N.C.
     Q   E  E Q   E  E   E E  E  E Q   E  E
e|--------------------|--------------------|
B|o-------------------|--------------------|
G|--------------------|--------------------|
D|--------------------|--------------------|
A|o-------------------|--------------------|
E|--0--<5>-0-0--<5>-0-|-0-0-<5>-0-0--<5>-0-|


   Q   E  E Q   E  E   E E  E  E Q   E  E   4x
e|-------------------|----------------------||
B|-------------------|---------------------o||
G|-------------------|----------------------||
D|-------------------|----------------------||
A|-------------------|---------------------o||
E|-0--<5>-0-0--<5>-0-|-0-0-<5>-0-0--<5>-0---||


   N.C.
   Q   E  E  Q   E E    E  E  Q   E E  E  E
e|-------------------|----------------------|
B|-------------------|----------------------|
G|-------------------|----------------------|
D|-------------------|----------------------|
A|-------------------|----------------------|
E|-0--<5>-0-<5>--0-0-|-<5>-0-<5>--0-0-<5>-0-|


    Q   E E  E  E  Q     E E  E  E  E  E  E  E
e|---------------------|-----------------------|
B|---------------------|-----------------------|
G|---------------------|-----------------------|
D|---------------------|-----------------------|
A|---------------------|-----------------------|
E|-<5>--0-0-<5>-0-<5>--|-0-0-<5>-0-<5>-0-<5>-0-|


   N.C.
    E  E  E  E  E  E  E  E    E  E  E  E  E  E  E  E
e|-------------------------|-------------------------|
B|-------------------------|-------------------------|
G|-------------------------|-------------------------|
D|-------------------------|-------------------------|
A|-------------------------|-------------------------|
E|-<5>-0-<5>-0-<5>-0-<5>-0-|-<5>-0-<5>-0-<5>-0-<5>-0-|


    E  E  E  E  E  E  E  E    E  E  E  E  E  E  E  E   H    H
e|-------------------------|-------------------------|-----------*|
B|-------------------------|-------------------------|-----------*|
G|-------------------------|-------------------------|-----------*|
D|-------------------------|-------------------------|-----------*|
A|-------------------------|-------------------------|-----------*|
E|-<5>-0-<5>-0-<5>-0-<5>-0-|-<5>-0-<5>-0-<5>-0-<5>-0-|-0---------*|



Duration Legend
---------------
W - whole; H - half; Q - quarter; E - 8th; S - 16th; T - 32nd; X - 64th; a - acciaccatura
+ - note tied to previous; . - note dotted; .. - note double dotted
Uncapitalized letters represent notes that are staccato (1/2 duration)
Irregular groupings are notated above the duration line
Duration letters will always appear directly above the note/fret number it represents the
duration for.  Duration letters with no fret number below them represent rests.  Multi-
bar rests are notated in the form Wxn, where n is the number of bars to rest for.  Low
melody durations appear below the staff

Tablature Legend
----------------
 h   - hammer-on
 p   - pull-off
 b   - bend
 pb  - pre-bend
 r   - bend release (if no number after the r, then release immediately)
 /\  - slide into or out of (from/to "nowhere")
 s   - legato slide
 S   - shift slide
 - natural harmonic
[n]  - artificial harmonic
n(n) - tapped harmonic
 ~   - vibrato
 tr  - trill
 T   - tap
 TP  - trem. picking
 PM  - palm muting
\n/  - tremolo bar dip; n = amount to dip
 \n  - tremolo bar down
 n/  - tremolo bar up
/n\  - tremolo bar inverted dip
 =   - hold bend; also acts as connecting device for hammers/pulls
 <> - volume swell (louder/softer)
 x   - on rhythm slash represents muted slash
 o   - on rhythm slash represents single note slash

Misc Legend
-----------
 |  - bar
||  - double bar
||o - repeat start
o|| - repeat end
*|  - double bar (ending)
 :  - bar (freetime)
 $  - Segno
 &  - Coda
Tempo markers -  = BPM(8/16=s8/s16), where s8 = swing 8ths, s16 = swing 16ths
Suggest correction
What's this?
You can suggest a correction to this tab. Community and Mods will review your correction and vote to approve or reject it.
comments
print report bad tab
4 comments total. Showing first comments.
+3 reply
Insomniac_123 537 wrote on September 20 2008, 07:00 am

This tab is very complicated as the song itself but great tab. i'll add this to my favorites, WELL DONE!! I can't belive no one has even posted!

+1 reply
WeIrDcHiPs 14 wrote on December 21 2008, 08:00 pm

o yeah =|

+1 reply
Lykke 76 wrote on March 19 2010, 06:55 am

It's vague but as Insomniac kinda said, so is the song. You did very well!

guest
You may want to rate the tab now too:
select rating
Please do not post tabs as comments. Select "correction" instead!