Oops, an error
Loading. Please wait.

A Song For The Deaf Bass Tab

version 1
version 1

Whole song

Interactive

3,426 views 3 this week
no commentswrite comment
1 2 3 4 5
please rate
add to favorites
launch autoscroll
font size
0
reset
guitar tuner
Tab Pro tools
  • play this tab
  • loop segment
  • change instrument
  • show fretboard
  • metronome
×
Best way to learn
"A Song For The Deaf"
Autoscroll
slow
fast
+/-
esc
set tempo
stop
Contributor
Artist: QOTSA
Song: A Song For The Deaf
Album: Songs For The Deaf

Tuning: 2 steps down (low to high) - C, F, A#, D#

Intro (the song is in a 6/8 time signature throughout)
D#||--------------------|----------------------|--------------------|
A#||--------------------|-----------6---6------|--------------------|
F ||-------8p7------8p7-|-------8p7--------8p7-|-------8p7------8p7-|
C ||--0--------0--------|--0-------------------|--0--------0--------|

D#|---------------------|----------------------|----------------------|
A#|-----------6---6-----|----------------------|-----------6---6------|
F |------8p7--------8p7-|-------8p7--------8p7-|-------8p7--------8p7-|
C |-0-------------------|--0--------0----------|--0-------------------|

D#|--------------------|----------------------|---------------------|
A#|------9-9------6-6--|----------6---6-------|---------------------|
F |--------------------|------8p7--------8p7--|-------8p7-------8p7-|
C |-0--------0---------|-0--------------------|--0--------0---------|
 
D#|----------------------|---------------------|-----------------------|
A#|-----------6---6------|-------9-9------6-6--|------------6---6------|
F |-------8p7-------8p7--|---------------------|-------8p7---------8p7-|
C |--0-------------------|--0--------0---------|--0--------------------|

Verse 1
D#||--------------------|----------------------|
A#||--------------------|-----------6---6------|
F ||-------8p7------8p7-|-------8p7--------8p7-|
C ||--0--------0--------|--0-------------------| X10

Chorus  
D#||--------------------|--------------------|--------------------|
A#||--------------------|--------------------|--------------------|
F ||--------------------|--------------------|--------------------|
C ||--5---5--5-5--5--5--|--7---7--7-7--7--7--|--3---3--3-3--3--3--|
  
D#|--------------------|--------------------|--------------------|
A#|--------------------|--------------------|--------------------|
F |--------------------|--------------------|--------------------|
C |--3---3--3-3--3--3--|--5---5--5-5--5--5--|--7---7--7-7--7--7--|
            
D#|---------------|---------------|
A#|---------------|---------------|
F |---------------|---------------|
C |--3------------|--L------------|

Verse 2
D#||--------------------|----------------------|
A#||--------------------|-----------6---6------|
F ||-------8p7------8p7-|-------8p7--------8p7-|
C ||--0--------0--------|--0-------------------| X2

Bridge
D#||------------------------|------------------------|
A#||------------------------|------------------------|
F ||--5-3-5-3-5--5-3-5-3-5--|--5-3-5-3-5--5-3-5-3-5--|
C ||------------------------|------------------------|

D#|------------------------|------------------------|
A#|------------------------|------------------------|
F |--7-5-7-5-7--7-5-7-5-7--|--7-5-7-5-7--7-5-7-5-7--|
C |------------------------|------------------------| X2

Verse 3
D#||--------------------|----------------------|
A#||--------------------|-----------6---6------|
F ||-------8p7------8p7-|-------8p7--------8p7-|
C ||--0--------0--------|--0-------------------| X10

Chorus  
D#||--------------------|--------------------|--------------------|
A#||--------------------|--------------------|--------------------|
F ||--------------------|--------------------|--------------------|
C ||--5---5--5-5--5--5--|--7---7--7-7--7--7--|--3---3--3-3--3--3--|
  
D#|--------------------|--------------------|--------------------|
A#|--------------------|--------------------|--------------------|
F |--------------------|--------------------|--------------------|
C |--3---3--3-3--3--3--|--5---5--5-5--5--5--|--7---7--7-7--7--7--|

D#|--------------------|--------------------|
A#|--------------------|--------------------|
F |--------------------|--------------------|
C |--3---3--3-3--3--3--|--3---3--3-3--3--3--|
  
D#|--------------------|--------------------|--------------------|
A#|--------------------|--------------------|--------------------|
F |--------------------|--------------------|--------------------|
C |--5---5--5-5--5--5--|--7---7--7-7--7--7--|--3---3--3-3--3--3--|
  
D#|--------------------|--------------------|--------------------|
A#|--------------------|--------------------|--------------------|
F |--------------------|--------------------|--------------------|
C |--3---3--3-3--3--3--|--5---5--5-5--5--5--|--7---7--7-7--7--7--|
            
D#|---------------|---------------|
A#|---------------|---------------|
F |---------------|---------------|
C |--3------------|--L------------|
  
Interlude
D#||--------------------|----------------------|--------------------|
A#||--------------------|-----------6---6------|--------------------|
F ||-------8p7------8p7-|-------8p7--------8p7-|-------8p7------8p7-|
C ||--0--------0--------|--0-------------------|--0--------0--------|

D#|---------------------|----------------------|----------------------|
A#|-----------6---6-----|----------------------|-----------6---6------|
F |------8p7--------8p7-|-------8p7--------8p7-|-------8p7--------8p7-|
C |-0-------------------|--0--------0----------|--0-------------------|

D#|--------------------|-----------------------|----------------------|
A#|-------9-9------6-6-|------------6---6------|----------------------|
F |--------------------|-------8p7---------8p7-|-------8p7--------8p7-|
C |--0--------0--------|--0--------------------|--0---------0---------|

D#|---------------------|-----------------------|
A#|-------9-9------6-6--|------------6---6------|
F |---------------------|-------8p7---------8p7-|
C |--0--------0---------|--0--------------------|

Bridge
D#|------------------------|
A#|------------------------|
F |--5-3-5-3-5--5-3-5-3-5--|
C |------------------------|

then
D#|---------------------|
A#|-----------6---6-----|
F |------8p7--------8p7-|
C |-0-------------------| X15

Verse 4
D#|---------------------|
A#|-----------6---6-----|
F |------8p7--------8p7-|
C |-0-------------------| X16

Chorus  
D#||--------------------|--------------------|--------------------|
A#||--------------------|--------------------|--------------------|
F ||--------------------|--------------------|--------------------|
C ||--5---5--5-5--5--5--|--7---7--7-7--7--7--|--3---3--3-3--3--3--|
  
D#|--------------------|--------------------|--------------------|
A#|--------------------|--------------------|--------------------|
F |--------------------|--------------------|--------------------|
C |--3---3--3-3--3--3--|--5---5--5-5--5--5--|--7---7--7-7--7--7--|

D#|--------------------|--------------------|
A#|--------------------|--------------------|
F |--------------------|--------------------|
C |--3---3--3-3--3--3--|--3---3--3-3--3--3--|
  
D#|--------------------|--------------------|--------------------|
A#|--------------------|--------------------|--------------------|
F |--------------------|--------------------|--------------------|
C |--5---5--5-5--5--5--|--7---7--7-7--7--7--|--3---3--3-3--3--3--|
  
D#|--------------------|--------------------|--------------------|
A#|--------------------|--------------------|--------------------|
F |--------------------|--------------------|--------------------|
C |--3---3--3-3--3--3--|--5---5--5-5--5--5--|--7---7--7-7--7--7--|
            
D#|---------------|---------------|
A#|---------------|---------------|
F |---------------|---------------|
C |--3------------|--L------------|

End

(sorry if I tabbed it a little sloppy at the end...)
comments
We did not receive enough feedback on this tab! Please rate:
print report bad tab
1 2 3 4 5
I want to post or [tab]
guest
You may want to rate the tab now too:
select rating
Please do not post tabs as comments. Select "correction" instead!