Oops, an error
Loading. Please wait.

Auto Pilot Tab

version 3
version 3

Whole song

Interactive

90,307 views 30 this week
20 commentsread comments
1 2 3 4 5
x 33
add to favorites
launch autoscroll
font size
0
reset
how to read this tab
guitar tuner
Autoscroll
slow
fast
+/-
esc
set tempo
stop
Help us to improve Ultimate-Guitar.com Take our survey!
×
Artist:     Queens of the Stone Age
Song:       Auto Pilot (Nick's Acoustic Version)
Tuning:     Standard
Tabbed by:  Ron Van Sexron
Email:      GatesofPurgatory@cox.net
Notes:      This may look wrong but this is the way Nick played it, listen to
song for rhythm, the tab may differ in the amount of times something is played,
so listen to the song


[Intro/Verse Riff]

e|----------7--------------------------------------|
B|----------7--------------------------------------| x6
G|----------7--------------------------------------|
D|-------------------------------------------------|
A|--7h9-9-9---7-7h9-7-7--9--9--7h9--9-7-7-7-7-7-7--|
E|--7---7-7---7-7---7-7-10-10-10---10-9-9-9-7-7-7--|


[Chorus]

e|-----------|
B|-----------|
G|--7--3--0--| x4
D|--9--5--2--|
A|--9--5--2--|
E|--7--3--0--|
  "I wanna fly..."


[Verse Riff]

e|----------7--------------------------------------|
B|----------7--------------------------------------|
G|----------7--------------------------------------|
D|-------------------------------------------------| x6
A|--7h9-9-9---7-7h9-7-7--9--9--7h9--9-7-7-7-7-7-7--|
E|--7---7-7---7-7---7-7-10-10-10---10-9-9-9-7-7-7--|
  "When we arrive..."


[Chorus]

e|-----------|
B|-----------|
G|--7--3--0--| x4
D|--9--5--2--|
A|--9--5--2--|
E|--7--3--0--|
  "I wanna fly..."


[Bridge]
           
e|--0--3--0--0---0--3--0--|
B|--1--3--0--0---1--3--0--|
G|--0--0--2--1---0--0--2--| x2
D|--2--0--2--2---2--0--2--|
A|--3--2--0--2---3--2--0--|
E|--0--3--0--0---0--3--0--|
  "ah-ah..."


[Verse Riff]

e|----------7--------------------------------------|
B|----------7--------------------------------------|
G|----------7--------------------------------------| x2
D|-------------------------------------------------|
A|--7h9-9-9---7-7h9-7-7--9--9--7h9--9-7-7-7-7-7-7--|
E|--7---7-7---7-7---7-7-10-10-10---10-9-9-9-7-7-7--|
  "High up in..."


[Chorus]

e|-----------|
B|-----------|
G|--7--3--0--|
D|--9--5--2--| x10
A|--9--5--2--|
E|--7--3--0--|
  "I wanna fly..."



************************************

| h  Hammer-on

************************************
Suggest correction
comments
print report bad tab
20 comments total. Showing first comments. show 1 bad comment
+1 reply
AlexMacky 197 Feb 11, 2005 12:00 AM

good work brother. This is exactly how nick plays it acoustically.
Job well done

+2 reply
REX Everything 70 Mar 26, 2005 12:00 AM

Nick also knows hows to play guitar and also plays many solo acoustic shows

guest
You may want to rate the tab now too:
select rating
Wanna post a correction for this tab? Suggest correction