Oops, an error
Loading. Please wait.

Battery Acid Tab

version 2
version 2

Whole song

3,053 views 3 this week
1 commentread comment
1 2 3 4 5
x 4
add to favorites
launch autoscroll
font size
0
reset
how to read this tab
guitar tuner
Autoscroll
slow
fast
+/-
esc
set tempo
stop
Help us to improve Ultimate-Guitar.com Take our survey!
×
Author
Intro

Guitar 1
E-------------------------------------------------------------------------|
B-------------------------------------------------------------------------|
G---------------------------10b-------------------------------------------|
D-------------------------------------------------------------------------|
A-------------------------------------------------------------------------|
E-------------------------------------------------------------------------|
Guitar 2
E-------------------------------------------------------------------------|
B-------------------------------------------------------------------------|
G-------------------------------------------------------------------------|
D----------------5----6----6----7----3------------------------------------|x4
A----------------3----4----4----5----1------------------------------------|
E-------------------------------------------------------------------------|

Guitars 1&2
starts at ("Go!")
E-------------------------------------------------------------------------|
B-------------------------------------------------------------------------|
G-------------------------------------------------------------------------|
D------------10----8----12----8----8----8----10----8----10----8-----------|
A------------10----8----12----8----8----8----10----8----10----8-----------|
E------------8-----6----10----6----6----6----8-----6----12----6-----------|
(Play until Pre-chorus["theres nothing you can say"])

(Pre-Chorus["theres nothing you can say"])
E-------------------------------------------------------------------------|
B-------------------------------------------------------------------------|
G------------10----8----12----8----8----8----10----8----12----------------|
D------------10----8----12----8----8----8----10----8----12----------------|
A------------8-----6----10----6----6----6----8-----6----10----------------|
E-------------------------------------------------------------------------|

(Chorus["Battery Acid"])
E-------------------------------------------------------------------------|
B-------------------------------------------------------------------------|
G------------10----8----12----8----8----8----10----8----12----------------|
D------------10----8----12----8----8----8----10----8----12----------------|
A------------8-----6----10----6----6----6----8-----6----10----------------|
E-------------------------------------------------------------------------|

E-------------------------------------------------------------------------|
B-------------------------------------------------------------------------|
G-------------------------------------------------------------------------|
D------------2-----4----2----6----2----2----2----4----2----6----2----2----|
A------------2-----4----2----6----2----2----2----4----2----6----2----2----|
E------------0-----2----0----4----0----0----0----2----0----4----0----0----|

(play over 3 times)
Suggest correction
comments
print report bad tab
1 comment total.
0 reply
maxotaxo8624 103 Mar 15, 2008 03:57 AM

Just plain wrong

guest
You may want to rate the tab now too:
select rating
Wanna post a correction for this tab? Suggest correction