Oops, an error
Loading. Please wait.

Broken Box Bass Tab

version 1
version 1

Whole song

Interactive

3,906 views 1 this week
2 commentsread comments
1 2 3 4 5
accurate
x 7
add to favorites
launch autoscroll
font size
0
reset
guitar tuner
Autoscroll
slow
fast
+/-
esc
set tempo
stop
Help us to improve Ultimate-Guitar.com Take our survey!
×
Band- Queens Of The Stone Age
Song- Broken Box

H=hammer
~=Let ring
x=Mute string

Verse:
G-------------------------------------|
D-------------------------------------|
A–------------------------------------|
E-3-5-5-5--3-5-5-5--3-5-5-5--3-5-5-5--|  x2

G------------------------------------|
D------------------------------------|
A-3-5-5-5--3-5-5-5--3-5-5-5--3-5-5-5-|
E------------------------------------|

G--------------------------------------|
D--------------------------------------|
A–-------------------------------------|
E-3-5-5-5--3-5-5-5--3-5-5-5--3-5-5-5---|

Chorus:
G-----------------------------------------------------------------------|
D-----------------------------------------------------------------------|
A------------------------------------3h5-5-5--3h5-5-5--3h5-5-5--3h5-5-5-|
E–3h5-5-5—3h5-5-5--1h3-3-3--1h3-3-3-------------------------------------|

G-----------------------------------------------------------------------|
D-----------------------------------------------------------------------|
A---------------------------------------------------------------3h5-5-5-|
E–3h5-5-5—3h5-5-5--6h8-8-8--6h8-8-8--1h3-3-3--1h3-3-3--1h3-3-3----------|

Bridge
G-------------------------------------|
D-------------------------------------|
A----------------------------2h4------|
E---9-9-8--8-7-7--6--5~--2h4----------|

G----------------------------------------------|
D----------------------------------------------|
A------------------------------2h4-2h4-----2h4-|
E---12-12-11--11-10-10--9--8~----------2h4-----|

G--------------------------------------------|
D--------------------------------------------|
A-----------------------2h4-2h4-----2h4------|
E---9-9-8--8-7-7--6--5~---------2h4----------|

G-------------------------------------|
D-------------------------------------|
A-------------------------------------|
E---9-9-8--8-7-7--6-x-----------------|

The just keep repeating the chorus and verse until the song ends. Fun song to play.
Suggest correction
comments
print report bad tab
2 comments total.
0 reply
thisnamebecool 22 wrote on December 4 2006, 10:22 pm

Eh your in the wrong octave for the first half of the chorus. And the bridge ain't right either

0 reply
Dead Marshal 93 wrote on February 25 2008, 06:53 pm


CHORUS
G|---------------------------------------------------------------------------|
D|5h7-7-7-5h7-7-7-3h5-5-5-3h5-5-5--------------------------------------------|
A|-------------------------------3h5-5-5-3h5-5-5-3h5-5-5-3h5-5-5-------------|
E|---------------------------------------------------------------------------|
x2
G|----------------3h5-5-5-3h5-5-5--------------------------------------------|
D|5h7-7-7-5h7-7-7----------------3h5-5-5-3h5-5-5-3h5-5-5---------------------|
A|------------------------------------------------------3h5-5-5--------------|
E|---------------------------------------------------------------------------|
x2


everybody gonna be happy now? :P

guest
You may want to rate the tab now too:
select rating
Please do not post tabs as comments. Select "correction" instead!