Oops, an error
Loading. Please wait.

Burn The Witch bass

version 3
version 3

Whole song

Interactive

30,372 views 72 this week
7 commentsread comments
1 2 3 4 5
x 33
add to favorites
×
Save as Personal and add changes to this tab that will be seen only by you. Learn more ›
×
You can save this tab as Personal to edit and correct it or add notes. All changes will be seen only by you. Learn more »
launch autoscroll
font size
0
reset
guitar tuner
backing track
0:00
0:00
edit
Autoscroll
slow
fast
+/-
esc
set tempo
stop
Author
Difficulty
intermediate
Tuning: Standard

[Intro]
G|---------------------------------------------------------------|
D|---------------------------------------------------------------|
A|---------------------------------------------------------------|
E|-0-0------------0-0-------------0-0-----------0-0--------------|

[Verse 1] x2
G|---------------------------------------------------------------|
D|-----5-----------------------------5---------------------------|
A|-------7-5----------5----------------7-5----------5------------| 
E|-0-0------------0-0---7-5-3----0-0------------0-0---7-5-3------|

G|---------------------------------------------------------------|
D|-----5-----------------------------5---------------------------|
A|-------7-5----------5----------------7-5--------------5---5----|
E|-0-0------------0-0---7-5-3----0-0------------0-0-(7)---7------|

[Chorus] x4
G|-----------------12--12--9--9---------------------------|
D|--9--9--13--13------------------------------------------|
A|---------------10--10--7--7-----------------------------|
E|-7--7--11--11-------------------------------------------|

[Instrumental]
G|---------------------------------------------------------------|
D|---------------------------------------------------------------|
A|---------------------------------------------------------------|
E|-0-0------------0-0-------------0-0-----------0-0--------------|

[Verse 2] x3
(very hard to pick out)
G|---------------------------------------------------------------|
D|---------------------------------------------------------------|
A|---------------------------------------------------------------|
E|-0-0----0-3-0---0-0----0-3-0---0-0----0-3-0---0-0----0-3-0-----|

(Even harder to pick out, it changes over when Josh says 'Fan the Flames' 
The guitar also goes up an octave if that helps.)

G|----------------------------------------------------------------|
D|-----5-----------------------------5----------------------------|
A|-------7-5----------5----------------7-5----------5-------------|
E|-0-0------------0-0---7-5-3----0-0------------0-0---7-5-3-------|

G|----------------------------------------------------------------|
D|-----5-----------------------------5----------------------------|
A|-------7-5----------5----------------7-5--------------5---5-----|
E|-0-0------------0-0---7-5-3----0-0------------0-0-(7)---7-------|

[Instrumental]
G|---------------------------------------------------------------|
D|---------------------------------------------------------------|
A|---------------------------------------------------------------|
E|-0-0------------0-0-------------0-0-----------0-0--------------|

[Chorus 2] x4
G|-----------------12--12--9--9---------------------------|
D|--9--9--13--13------------------------------------------|
A|---------------10--10--7--7-----------------------------|
E|-7--7--11--11-------------------------------------------|

G|-------------------12--12--9--9---------------------12------9---|
D|--9--9---13--13--------------------9------13--------------------|
A|-----------------10--10--7--7--------------------10---10--7---7-|
E|-7--7--11--11--------------------7---7--11---11-----------------|

[Instrumental]
G|---------------------------------------------------------------|
D|---------------------------------------------------------------|
A|---------------------------------------------------------------|
E|-0-0------------0-0-------------0-0-----------0-0--------------|

[Solo Backing] x4
(same as verse 2, but with an extra note added in.)
G|--------------------------------------------------------------------|
D|--------------------------------------------------------------------|
A|--------------------------------------------------------------------|
E|-0-0--0-3-0-3---0-0--0-3-0-3---0-0--0-3-0-3---0-0--0-3-0-3----------|

[Verse 1] x2
G|---------------------------------------------------------------|
D|-----5-----------------------------5---------------------------|
A|-------7-5----------5----------------7-5----------5------------| 
E|-0-0------------0-0---7-5-3----0-0------------0-0---7-5-3------|

G|---------------------------------------------------------------|
D|-----5-----------------------------5---------------------------|
A|-------7-5----------5----------------7-5--------------5---5----|
E|-0-0------------0-0---7-5-3----0-0------------0-0-(7)---7------|


************************************

| (n)  Ghost note

************************************

            
            
Suggest correction
Creating personal tab
Creating personal tab
You can edit any tab online and save it as your Personal.

You can edit, replace or remove any tab part or add personal notes – all changes will be seen only by you.

Personal tabs can be accessed anytime from any device, even offline.
Learn more »
comments
print report bad tab
7 comments total. Showing first comments.
+1 reply
chaoschaos 103 Oct 16, 2006 04:53 PM

good job, best one in. but you missed some of the slides
otherwise its cool.

+1 reply
GreenPhantom 51 Dec 08, 2006 08:34 AM

this is an awesome tab. the only thing missing, like chaos said, are the slides and some fills near the end of the solo. other than that this tab is great!

0 reply
daniel c b 93 Sep 21, 2007 04:41 PM

thumbs up :)

guest
You may want to rate the tab now too:
select rating
Wanna post a correction for this tab? Suggest correction