Oops, an error
Loading. Please wait.

Era Vulgaris Tab

11,465 views 33 this week
no commentswrite comment
1 2 3 4 5
accurate
x 6
add to favorites
launch autoscroll
font size
0
reset
how to read this tab
guitar tuner
Autoscroll
slow
fast
+/-
esc
set tempo
stop
Help us to improve Ultimate-Guitar.com Take our survey!
×
Author
tipover 332
Queens Of the Stone Age
Era Vulgaris- (Era Vulgaris UK)

Intro (Gradual increase in volume)
c--------------------|
g--------------------|
e-9-9-9-99-9-9-9-99--| x4
b-9-9-9-99-9-9-9-99--|
f-7-7-7-77-7-7-7-77--|
C------0--0-----0--0-|

Verse
c--------------------|
g--------------------|
e-9-9-9-99-9-9-9-99--| x3
b-9-9-9-99-9-9-9-99--|
f-7-7-7-77-7-7-7-77--|
C------0--0-----0--0-|

c-------------------------------------|
g-------------------------------------|
e-16-16-16-1616-16-16-16-1616---------|
b-16-16-16-1616-16-16-16-1616---------|
f-14-14-14-1414-14-14-14-1414---------|
C---------0----0--------0----0--------|

c--------------------|
g--------------------|
e-9-9-9-99-9-9-9-99--|
b-9-9-9-99-9-9-9-99--|
f-7-7-7-77-7-7-7-77--|
C------0--0-----0--0-|

c-------------------------------------|
g-------------------------------------|
e-16-16-16-1616-16-16-16-1616---------|
b-16-16-16-1616-16-16-16-1616---------|
f-14-14-14-1414-14-14-14-1414---------|
C---------0----0--------0----0--------|


c------------------------------------|
g------------------------------------|
e-11-11-11-1111-/14-14-14-1414-------|
b-11-11-11-1111-/14-14-14-1414-------|
f-9--9--9--9-9--/12-12-12-1212-------|
C---------0----0---------0----0------|

c--------------------|
g--------------------|
e-9-9-9-99-9-9-9-99--|
b-9-9-9-99-9-9-9-99--|
f-7-7-7-77-7-7-7-77--|
C------0--0-----0--0-|

c------------------------------------|
g------------------------------------|
e-11-11-11-1111-/14-14-14-1414-------|
b-11-11-11-1111-/14-14-14-1414-------|
f-9--9--9--9-9--/12-12-12-1212-------|
C---------0----0---------0----0------|

c------------------------------------------------|
g------------------------------------------------|
e-9-9-9-xx-7-7-7-10--x--7-9-9-9-99-9-9-9-12-12//-|
b-9-9-9-xx-7-7-7-10--x--7-9-9-9-99-9-9-9-12-12//-|
f-7-7-7-xx-5-5-5-8---x--5-7-7-7-77-7-7-7-10-10//-|
C------------------------------0--0--------------|

Chorus

c-----------------------------------------------------------------------|
g-----------------------------------------------------------------------|
e-12-12-12-xx-11-11-11-xx-5-5-5-xx-9-9-9-xx-3-3-3-xx-7-7-7-xx-----9b~---|  x2
b-12-12-12-xx-11-11-11-xx-5-5-5-xx-9-9-9-xx-3-3-3-xx-7-7-7-xx-7-x-9b~---|
f-10-10-10-xx-9--9--9--xx-3-3-3-xx-7-7-7-xx-1-1-1-xx-5-5-5-xx-7-x-7b~---|
C-------------------------------------------------------------5-x-------|


Verse 2

c--------------------|
g--------------------|
e-9-9-9-99-9-9-9-99--| x3
b-9-9-9-99-9-9-9-99--|
f-7-7-7-77-7-7-7-77--|
C------0--0-----0--0-|

c-------------------------------------|
g-------------------------------------|
e-16-16-16-1616-16-16-16-1616---------|
b-16-16-16-1616-16-16-16-1616---------|
f-14-14-14-1414-14-14-14-1414---------|
C---------0----0--------0----0--------|

c--------------------|
g--------------------|
e-9-9-9-99-9~9-9-99--|
b-9-9-9-99-9~9-9-99--|
f-7-7-7-77-7~7-7-77--|
C------0--0-----0--0-|

c-------------------------------------|
g-------------------------------------|
e-16-16-16-1616-16-16-16-1616---------|
b-16-16-16-1616-16-16-16-1616---------|
f-14-14-14-1414-14-14-14-1414---------|
C---------0----0--------0----0--------|


c------------------------------------|
g------------------------------------|
e-11-11-11-1111-/14-14-14-1414-------|
b-11-11-11-1111-/14-14-14-1414-------|
f-9--9--9--9-9--/12-12-12-1212-------|
C---------0----0---------0----0------|

c--------------------|
g--------------------|
e-9-9-9-99-9~9-9-99--|
b-9-9-9-99-9~9-9-99--|
f-7-7-7-77-7~7-7-77--|
C------0--0-----0--0-|

c------------------------------------|
g------------------------------------|
e-11-11-11-1111-/17-17-17-1717-------|
b-11-11-11-1111-/17-17-17-1717-------|
f-9--9--9--9-9--/15-15-15-1515-------|
C---------0----0---------0----0------|

c------------------------|
g------------------------|
e-9-9-9-99-9-9-9-9-9--//-|
b-9-9-9-99-9-9-9-9-9--//-|
f-7-7-7-77-7-7-7-7-7--//-|
C------0--0--------------|

Chorus

c-----------------------------------------------------------------------|
g-----------------------------------------------------------------------|
e-12-12-12-xx-11-11-11-xx-5-5-5-xx-9-9-9-xx-3-3-3-xx-7-7-7-xx-----9b~---|  x2
b-12-12-12-xx-11-11-11-xx-5-5-5-xx-9-9-9-xx-3-3-3-xx-7-7-7-xx-7-x-9b~---|
f-10-10-10-xx-9--9--9--xx-3-3-3-xx-7-7-7-xx-1-1-1-xx-5-5-5-xx-7-x-7b~---|
C-------------------------------------------------------------5-x-------|

Middle Bit


c--------------------|
g--------------------|
e-9-9-9-99-9-9-9-99--|
b-9-9-9-99-9-9-9-99--|
f-7-7-7-77-7-7-7-77--|
C------0--0-----0--0-|


c------------------------------|
g------------------------------|
e-12-12-12-1212-12-12-12-1212--|
b-12-12-12-1212-12-12-12-1212--|
f-10-10-10-1010-10-10-10-1010--|
C---------0----0--------0----0-|


c------------------------------------|
g------------------------------------|
e-12-12-1212-1212-12-12-1212-1212----|
b-12-12-1212-1212-12-12-1212-1212----| x2
f-10-10-1010-1010-10-10-1010-1010----|
C-----------0----0----------0----0---|

c-----------------------------------|
g-----------------------------------|
e-16-16-1616-1616-16-16-1616-1616---| x2
b-16-16-1616-1616-16-16-1616-1616---|
f-14-14-1414-1414-14-14-1414-1414---|
C-----------0----0----------0----0--|

c----------------------------------|
g----------------------------------|
e-11-11-1111-1111-17-17-1717-1717--|
b-11-11-1111-1111-17-17-1717-1717--|
f-9--9--9-9--9-9--15-15-1515-1515--|
C-----------0----0----------0----0-|

c----------------------------------|
g----------------------------------|
e-11-11-1111-1111-17-17-1717-1717--|
b-11-11-1111-1111-17-17-1717-1717--|
f-9--9--9-9--9-9--15-15-1515-1515--|
C-----------0----0----------0----0-|

c----------------------|
g----------------------|
e-9-9-99-99-9-9-99-99--|
b-9-9-99-99-9-9-99-99--|
f-7-7-77-77-7-7-77-77--|
C-------0--0------0--0-|

c----------------------------------|
g----------------------------------|
e-11-11-1111-1111-14-14-1414-1414--|
b-11-11-1111-1111-14-14-1414-1414--|
f-9--9--9-9--9-9--12-12-1212-1212--|
C-----------0----0----------0----0-|

the next bit i found hard to distinguish, i think it is something like this;

c---------------------------|
g---------------------------|
e-9-9-9-xx-7-7-7-10--x--7-9-|
b-9-9-9-xx-7-7-7-10--x--7-9-| x numerous times
f-7-7-7-xx-5-5-5-8---x--5-7-|
C---------------------------|

and/or this

c---------------------------|
g---------------------------|
e-9-9-9-xx-12-x-16----------|
b-9-9-9-xx-12-x-16----------| x numerous times
f-7-7-7-xx-10-x-14----------|
C---------------------------|
 meanwhile a second guitar plays some thing high over the top.

then back into the chorus

c-----------------------------------------------------------------------|
g-----------------------------------------------------------------------|
e-12-12-12-xx-11-11-11-xx-5-5-5-xx-9-9-9-xx-3-3-3-xx-7-7-7-xx-----9b~---|  x4
b-12-12-12-xx-11-11-11-xx-5-5-5-xx-9-9-9-xx-3-3-3-xx-7-7-7-xx-7-x-9b~---|
f-10-10-10-xx-9--9--9--xx-3-3-3-xx-7-7-7-xx-1-1-1-xx-5-5-5-xx-7-x-7b~---|
C-------------------------------------------------------------5-x-------|

ourto
 (78 x16 then 910 x8 then 89 x8 then 67 x16)
c-------------------------------------------------------------------------|
g-------------------------------------------------------------------------|
e-------------------------------------------------------------------------|
b-------------------------------------------------------------------------|
f-787878787878787878787878787878789109109109109109109109108989898989898989
C-------------------------------------------------------------------------

c------------------------------------|
g------------------------------------|
e------------------------------------|
b------------------------------------|
f-6767676767676767676767676767677----|
C------------------------------------|

end. thanks.
Suggest correction new What's this?
You can suggest a correction to this tab. Community and Mods will review your correction and vote to approve or reject it.
comments
print report bad tab
guest
You may want to rate the tab now too:
select rating
Please do not post tabs as comments. Select "correction" instead!