Oops, an error
Loading. Please wait.
We have an official Everybody Knows That Youre Insane tab made by UG professional guitarists. Check out the tab »
×

Everybody Knows That Youre Insane tab

70,309 views 102 this week
16 commentsread comments
1 2 3 4 5
x 32
add to favorites
×
Save as Personal and add changes to this tab that will be seen only by you. Learn more ›
×
You can save this tab as Personal to edit and correct it or add notes. All changes will be seen only by you. Learn more »
launch autoscroll
font size
0
reset
how to read this tab
guitar tuner
backing track
0:00
0:00
edit
Autoscroll
slow
fast
+/-
esc
set tempo
stop
Another great song
off of Lullabies to Paralyze. In C tuning 


[Intro/Verse Rhythm] (Clean)

            
e|    e|--------------------------------|   
B|    B|------7-------6------3----------|   
G|    G|--------7-------6-----3----4----|   
D|    D|----7----7---6---6--3--3----5---|   
A|    A|---5--------4------1------5--5--|   
E|    e|-------------------------3------|          


[Slide Lead Intro]

e|-----------------------------------|
B|-----------------------------------|
G|-7/10\7~---6\7/6-----------/12~----|
D|--------------------2\3~-3\--------|
A|-----------------------------------|
E|-----------------------------------|


     [Intro Rhythm Cont.]

             
e|      e|-------------------------------------|
B|      B|----7------9-------10--------12------|
G|      G|-----7------9--------10--------10----|
D|      D|---7--7---9--9---10----10--10----10--|
A|      A|--5------7------8---------8----------|
E|      e|-------------------------------------|


[Slide Lead Cont.]

e|-----------------------------|
B|-13/15\10---10/12~---12/14~--|
G|-----------------------------|
D|-----------------------------|
A|-----------------------------|
E|-----------------------------|


    [Intro Rhythm Cont.]

           
e|    |--------------------------------|
B|    |------7-------6------3----------|
G|    |--------7-------6-----3----4----|
D|    |----7----7---6---6--3--3----5---|
A|    |---5--------4------1------5--5--|
E|    |-------------------------3------|


[Slide Lead Cont.]

e|-10/13\10~--10/15~--15/17~--18~--|
B|---------------------------------|
G|---------------------------------|
D|---------------------------------|
A|---------------------------------|
E|---------------------------------|


[Intro Rhythm Cont.]

             
e|      e|-------------------------------------|
B|      B|----7------9-------10--------12------|
G|      G|-----7------9--------10--------10----|
D|      D|---7--7---9--9---10----10--10----10--|
A|      A|--5------7------8---------8----------|
E|      e|-------------------------------------|


[Slide Lead Cont.]

e|-13/16\13--/16---/22-/22\21\14~--14/16\14\9~~~--|
B|------------------------------------------------|
G|------------------------------------------------|
D|------------------------------------------------|
A|------------------------------------------------|
E|------------------------------------------------|


[Verse] (same picking pattern as above)


  You Otta Know  Why You Feel So Hollow 

  [Slide Lead ]
e|-------------|
B|-10/15~\10~--|
G|-------------|
D|-------------|
A|-------------|
E|-------------|

    Cause You Are------------------------

[Slide]
e|-10/13~\10~--|
B|-------------|
G|-------------|
D|-------------|
A|-------------|
E|-------------|

      
  You're Missing Out  Well If You Say So

               [Slide]

e|-/15-------------------13/17~\13~~---|
B|-------------------------------------|
G|-------------------------------------| 
D|-------------------------------------|
A|-------------------------------------|
E|-------------------------------------|

 
  When You're Missing Out-------------

[Slide]

e|-13/16\13~~--------------------------/17~/19~/20/22~~~--|
B|--------------------------------------------------------|
G|--------------------------------------------------------|
D|--------------------------------------------------------|
A|--------------------------------------------------------|
E|--------------------------------------------------------|


[Chorus] (Heavy Distorion)

   Everybody---------------- Knows That  You're  In-
e|---------------------------------------------------|
B|---------------------------------------------------|
G|-7-7-7-7-7-7-7-7-7-7-7-7-7-6-6-6-6-6-6-3-3-3-3-3-3-|
D|-7-7-7-7-7-7-7-7-7-7-7-7-7-6-6-6-6-6-6-3-3-3-3-3-3-|
A|-5-5-5-5-5-5-5-5-5-5-5-5-5-4-4-4-4-4-4-1-1-1-1-1-1-|
E|---------------------------------------------------|

 -Sane
e|------------------------------------------------------|
B|------------------------------------------------------|
G|-----------7-------------7-------------7--------------|
D|-5-5-5-5-5-7---5-5-5-5-5-7---5-5-5-5-5-7---5-5-5-5-5--|
A|-5-5-5-5-5-5---5-5-5-5-5-5---5-5-5-5-5-5---5-5-5-5-5--|
E|-3-3-3-3-3---0-3-3-3-3-3---0-3-3-3-3-3---0-3-3-3-3-3--| 2x


[Verse 2] 
                    
                   You  Otta  Know                  
e|------------------------------------------------------|
B|------------------------------------------------------|
G|-7-7--7-7-7--7-7-7--7-7-7--7-6-6--6-6-6--6-6-6--6-6-6-|
D|-7-7--7-7-7--7-7-7--7-7-7--7-6-6--6-6-6--6-6-6--6-6-6-|
A|-5-5--5-5-5--5-5-5--5-5-5--5-4-4--4-4-4--4-4-4--4-4-4-|
E|------------------------------------------------------|



  Just   How Long  You Can    Hide From
e|-------------------------------------------------|
B|-------------------------------------------------|
G|-----------------------------------------------5-|
D|-8-8-8-8-8-8-8-8-8-8-8-8-5-5-5-5-5-5-5-5-5-5-5-5-|
A|-8-8-8-8-8-8-8-8-8-8-8-8-5-5-5-5-5-5-5-5-5-5-5-7-|
E|-6-6-6-6-6-6-6-6-6-6-6-6-3-3-3-3-3-3-3-3-3-3-3---| 

           What You Are
e|------------------------------------------------------|
B|------------------------------------------------------|
G|-7-7--7-7-7--7-7-7--7-7-7--7-9-9--9-9-9--9-9-9--9-9-9-|
D|-7-7--7-7-7--7-7-7--7-7-7--7-9-9--9-9-9--9-9-9--9-9-9-|
A|-5-5--5-5-5--5-5-5--5-5-5--5-7-7--7-7-7--7-7-7--7-7-7-|
E|------------------------------------------------------|  

               Not Very Long
e|-------------------------------------------------|
B|-------------------------------------------------|
G|-------------------------------------------------|
D|-8-8-8-8-8-8-8-8-8-8-8-8-8-8-8-8-8-8-8-8-8-8-8-8-|
A|-8-8-8-8-8-8-8-8-8-8-8-8-8-8-8-8-8-8-8-8-8-8-8-8-|
E|-6-6-6-6-6-6-6-6-6-6-6-6-6-6-6-6-6-6-6-6-6-6-6-6-|

                   I Have Been Lost
e|------------------------------------------------------|
B|------------------------------------------------------|
G|-7-7--7-7-7--7-7-7--7-7-7--7-6-6--6-6-6--6-6-6--6-6-6-|
D|-7-7--7-7-7--7-7-7--7-7-7--7-6-6--6-6-6--6-6-6--6-6-6-|
A|-5-5--5-5-5--5-5-5--5-5-5--5-4-4--4-4-4--4-4-4--4-4-4-|
E|------------------------------------------------------|

 Down Every--- Road I've   Followed
e|-------------------------------------------------|
B|-------------------------------------------------|
G|-------------------------------------------------|
D|-8-8-8-8-8-8-8-8-8-8-8-8-5-5-5-5-5-5-5-5-5-5-5-5-|
A|-8-8-8-8-8-8-8-8-8-8-8-8-5-5-5-5-5-5-5-5-5-5-5-5-|
E|-6-6-6-6-6-6-6-6-6-6-6-6-3-3-3-3-3-3-3-3-3-3-3-3-|

                    Out in the Dark
e|------------------------------------------------------|
B|------------------------------------------------------|
G|-7-7--7-7-7--7-7-7--7-7-7--7-9-9--9-9-9--9-9-9--9-9-9-|
D|-7-7--7-7-7--7-7-7--7-7-7--7-9-9--9-9-9--9-9-9--9-9-9-|
A|-5-5--5-5-5--5-5-5--5-5-5--5-7-7--7-7-7--7-7-7--7-7-7-|
E|------------------------------------------------------| 

       On My Way Home
e|--------------------------------------------------------------------------|
B|--------------------------------------------------------------------------|
G|-----------------------------------7------------7------------7------------|
D|-8-8-8-8-8-8-8-8-8-8-8-8-5-5-5-5-5-7--5-5-5-5-5-7--5-5-5-5-5-7--5-5-5-5-5-|
A|-8-8-8-8-8-8-8-8-8-8-8-8-5-5-5-5-5-5--5-5-5-5-5-5--5-5-5-5-5-5--5-5-5-5-5-|
E|-6-6-6-6-6-6-6-6-6-6-6-6-3-3-3-3-3--0-3-3-3-3-3--0-3-3-3-3-3--0-3-3-3-3-3-|


[Chorus] (Heavy Distorion)

   Everybody---------------- Knows That  You're  In-
e|---------------------------------------------------|
B|---------------------------------------------------|
G|-7-7-7-7-7-7-7-7-7-7-7-7-7-6-6-6-6-6-6-3-3-3-3-3-3-|
D|-7-7-7-7-7-7-7-7-7-7-7-7-7-6-6-6-6-6-6-3-3-3-3-3-3-|
A|-5-5-5-5-5-5-5-5-5-5-5-5-5-4-4-4-4-4-4-1-1-1-1-1-1-|
E|---------------------------------------------------|
-Sane
|------------------------------------------------------|
|------------------------------------------------------|
|-----------7-------------7-------------7--------------|
|-5-5-5-5-5-7---5-5-5-5-5-7---5-5-5-5-5-7---5-5-5-5-5--|
|-5-5-5-5-5-5---5-5-5-5-5-5---5-5-5-5-5-5---5-5-5-5-5--|
|-3-3-3-3-3---0-3-3-3-3-3---0-3-3-3-3-3---0-3-3-3-3-3--|

   Everybody---------------- Knows That  You're  In
e|---------------------------------------------------|
B|---------------------------------------------------|
G|-7-7-7-7-7-7-7-7-7-7-7-7-7-9-9-9-9-9-9-3-3-3-3-3-3-|
D|-7-7-7-7-7-7-7-7-7-7-7-7-7-9-9-9-9-9-9-3-3-3-3-3-3-|
A|-5-5-5-5-5-5-5-5-5-5-5-5-5-7-7-7-7-7-7-1-1-1-1-1-1-|
E|---------------------------------------------------|

 -Sane
e|------------------------------------------------------|
B|------------------------------------------------------|
G|-----------7-------------7-------------7--------------|
D|-5-5-5-5-5-7---5-5-5-5-5-7---5-5-5-5-5-7---5-5-5-5-5--|
A|-5-5-5-5-5-5---5-5-5-5-5-5---5-5-5-5-5-5---5-5-5-5-5--|
E|-3-3-3-3-3---0-3-3-3-3-3---0-3-3-3-3-3---0-3-3-3-3-3--|


[Chorus] Lead

   Everybody------------------- Knows   That     You're        In-   
e|-----------------------------------------------------------------|
B|-----------------------------------------------------------------|
G|-7777-9999-10101010-12121212-13131313-12121212-10101010-12121212-|
D|-----------------------------------------------------------------|
A|-----------------------------------------------------------------|
E|-----------------------------------------------------------------|

   Sane
e|-------------------------------------------|
B|-------------------------------------------|
G|-77777777-7-77777777-7-77777777-7-77777777-|
D|-------------------------------------------|
A|-------------------------------------------|
E|-------------------------------------------|

   Everybody------------------ Knows That    You're        In-   
e|-------------------------------------------------------------|
B|-------------------------------------------------------------|
G|-7777-9999-10101010-12121212-9999-10101010-12121212-13131313-|
D|-------------------------------------------------------------|
A|-------------------------------------------------------------|
E|-------------------------------------------------------------|

   Sane
e|-------------------------------------------|
B|-------------------------------------------|
G|-77777777-7-77777777-7-77777777-7-77777777-|
D|-------------------------------------------|
A|-------------------------------------------|
E|-------------------------------------------| 


[Bridge]

 Rhythm
e|-----------------------------------------------|
B|-----------------------------------------------|
G|-3-3---3-3---3-3---3-3---7-7---7-7---5-5---5-5-|
D|-3-3---3-3---3-3---3-3---7-7---7-7---5-5---5-5-|
A|-1-1---1-1---1-1---1-1---5-5---5-5---3-3---3-3-|
E|-----0-----0-----0-----0-----0-----0-----0-----|4x


[Solo] (oh boy, this could be pretty rough)

e|-----------------------------------------8h10p8------12~-|
B|-----------------------------------------------10p8------|
G|-7^-5h7-7--5h7-7p5-7/9-9~--10--12^12^-10-----------9-----|
D|--------------7------------------------------------------|
A|---------------------------------------------------------|
E|---------------------------------------------------------| 

e|-13-13--10-10--10/17----------------------------------------|
B|-16^16^-13^13^-------18-15-17-------15----------------------|
G|------------------------------17-14----14-10-(14-10-12)-7~--|
D|------------------------------------------------------------|
A|------------------------------------------------------------|
E|------------------------------------------------------------|

   And I Feel Noth-ing - Am I Better Yet
e|-------------------------------------------------| 
B|-------------------------------------------------| 
G|-3-3-3-3-3-3-3-3-3-3-3-3-7-7-7-7-7-7-5-5-5-5-5-5-|                         
D|-3-3-3-3-3-3-3-3-3-3-3-3-7-7-7-7-7-7-5-5-5-5-5-5-|
A|-1-1-1-1-1-1-1-1-1-1-1-1-5-5-5-5-5-5-3-3-3-3-3-3-|
E|-------------------------------------------------| 3x

   And I Feel Noth--ing Am I Better Yet 
e|--------------------------------------------------|
B|--------------------------------------------------|
G|-3-3-3-3-3-3-3-3-3-3-3-3-----------7--------------|
D|-3-3-3-3-3-3-3-3-3-3-3-3-5-5-5-5-5-7--5-5-5-5-5---|
A|-1-1-1-1-1-1-1-1-1-1-1-1-5-5-5-5-5-5--5-5-5-5-5---|
E|-------------------------3-3-3-3-3--0-3-3-3-3-3---| 1x

 Chorus (Heavy Distorion)
   Everybody---------------- Knows That  You're  In-
e|---------------------------------------------------|
B|---------------------------------------------------|
G|-7-7-7-7-7-7-7-7-7-7-7-7-7-6-6-6-6-6-6-3-3-3-3-3-3-|
D|-7-7-7-7-7-7-7-7-7-7-7-7-7-6-6-6-6-6-6-3-3-3-3-3-3-|
A|-5-5-5-5-5-5-5-5-5-5-5-5-5-4-4-4-4-4-4-1-1-1-1-1-1-|
E|---------------------------------------------------|

 -Sane
e|------------------------------------------------------|
B|------------------------------------------------------|
G|-----------7-------------7-------------7--------------|
D|-5-5-5-5-5-7---5-5-5-5-5-7---5-5-5-5-5-7---5-5-5-5-5--|
A|-5-5-5-5-5-5---5-5-5-5-5-5---5-5-5-5-5-5---5-5-5-5-5--|
E|-3-3-3-3-3---0-3-3-3-3-3---0-3-3-3-3-3---0-3-3-3-3-3--| 4x


[Chorus] Lead

   Everybody------------------- Knows   That     You're        In-   
e|-----------------------------------------------------------------|
B|-----------------------------------------------------------------|
G|-7777-9999-10101010-12121212-13131313-12121212-10101010-12121212-|
D|-----------------------------------------------------------------|
A|-----------------------------------------------------------------|
E|-----------------------------------------------------------------|

   Sane
e|-------------------------------------------|
B|-------------------------------------------|
G|-77777777-7-77777777-7-77777777-7-77777777-|
D|-------------------------------------------|
A|-------------------------------------------|
E|-------------------------------------------| 3x

   Everybody------------------ Knows That    You're        In-   
e|-------------------------------------------------------------|
B|-------------------------------------------------------------|
G|-7777-9999-10101010-12121212-9999-10101010-12121212-13131313-|
D|-------------------------------------------------------------|
A|-------------------------------------------------------------|
E|-------------------------------------------------------------|

   Sane
e|-------------------------------------------|
B|-------------------------------------------|
G|-77777777-7-77777777-7-77777777-7-77777777-|
D|-------------------------------------------|
A|-------------------------------------------|
E|-------------------------------------------| 


for all the crazies out there.

************************************

| h  Hammer-on
| p  Pull-off
| /  Slide up
| \  Slide down
| ~  Vibrato

************************************

            
            
Suggest correction
Creating personal tab
Creating personal tab
You can edit any tab online and save it as your Personal.

You can edit, replace or remove any tab part or add personal notes – all changes will be seen only by you.

Personal tabs can be accessed anytime from any device, even offline.
Learn more »
comments
print report bad tab
16 comments total. Showing first comments.
0 reply
FreedomFighter 102 Mar 28, 2005 07:00 PM

This sounds alright to me. Good job :)

+1 reply
tylersugarcarlo 591 May 28, 2005 08:00 PM, edited on June 12 2014, 10:13 pm

woo!

0 reply
tylersugarcarlo 591 May 28, 2005 08:00 PM

wait, after looking at that again i wrote all the chords above the names, that's pretty damned easy if you ask me. but if i'm missing what you're saying than i appologize for making this tab complicated

guest
You may want to rate the tab now too:
select rating
Wanna post a correction for this tab? Suggest correction