Oops, an error
Loading. Please wait.

Fairweather Friends bass

version 1
version 1

Whole song

Interactive

995 views 9 this week
no commentswrite comment
1 2 3 4 5
x 3
add to favorites
×
Save as Personal and add changes to this tab that will be seen only by you. Learn more ›
×
You can save this tab as Personal to edit and correct it or add notes. All changes will be seen only by you. Learn more »
launch autoscroll
font size
0
reset
guitar tuner
edit
Autoscroll
slow
fast
+/-
esc
set tempo
stop
Author
Difficulty
-------------------------------------------------------------------------------
                        Fairweather Friends- QOTSA
-------------------------------------------------------------------------------
Tabbed by: Jacque
E-mail: Imbatman1312@gmail.com

Tuning: Standard

Intro

Very complex tab, relatively hard to pick out the bass parts aswell. If I'm wrong in any places please do
correct me :))

(Ahs)

G|------------------------|
D|------------------------|
A|-2-2-2-2-2-2-222-0L-----| X2
E|------------------------|

G|--/5--5-5--5-5-5-5-5-5-5-5-5\-/5--5-5--5-5-5-5-5-5-5-5\---2L----|
D|----------------------------------------------------------------|
A|----------------------------------------------------------------|
E|----------------------------------------------------------------|

Verse 1- No Bass

Pre Chorus

G|-------------------------------------------------------16-16--16-14---------------|
D|--------------------------------------------------14h16-------------16/14-12------|
A|--------------------------------------------0--2-----------------------------12---|
E|-3-3-3-3-3-3-3--3--0-0-----3-3-3-3-3-3-3-3----------------------------------------|

G|-----------------------------------------|
D|-----------------------------------------|
A|-----------------------------------------|
E|-3-3-3-3-3-3-3--3--0-0----3-3-3-3-3-3----|

G|------------------------------------------------------------------------------|
D|------------------------------------------------------------------------------|
A|--------9\---------------2/14-14------------2-2/14-16p14h17p14h18-------------|
E|-7--7-7-----0--0-0-3/5------------0---3--5-------------------------0---3--5---|

G|--------------------|
D|--------------------|
A|-2/14-14------------|
E|---------x0x0x0x0---|

Chorus

G|------------------7-------------------------------------------|
D|---------------------------------------------------9-9-7-7----|
A|-------5-7----5/7--------------------------5-7h9p7------------|
E|-0-0/7----0-0-------7-7-7-7-5-5-5-5--0-0/7--------7-7-7-5-5---|

G|-|-----------------------------------------------|
D|-|----------------9-9-7-7------------0-----------|
A|-|--------5-7h9p7----------------5-7---2-2-2-2-0-| 
E|-|--0-0/7--------7-7-7-5-5--0-0/7----------------|

G|-------------|
D|-------------|
A|-2-2-2-2-0---| X3
E|-------------|

Bridge

G|-----------------------------------|
D|-----------------------------------|
A|-5-5-5--3--3-3--2-2-2-2-2-2-2------|
E|------------------------------5h7--|

G|-----------------------------------|
D|-----------------------------------|
A|-5-5-5--3--3-3--2-2-2-2-2-2-2------|
E|------------------------------5h7--|

G|---------------5--------------------|
D|------------------------------------|
A|-5-5-5--3--3-3---2-2-2-2-2-2-2------|
E|-------------------------------5h7--|

G|-----------5----|
D|-----4----------|
A|-5-7---3-3------|
E|----------------|

Pre Chorus 2

"One day when we're... Far away"

G|--------------------------------------------------------10/19------------|
D|-------------------------------------------------------------------------|
A|-------------------------------2/(14)14-----------2/9-9------------------|
E|---------------------0--0-3-5-------------0-3-5-----------------0-3-5----|

G|--------------------------------------------------------------------------------|
D|---------12/--------------------------------------------------------------------|
A|-2/14-14-----12/---------2/14-14--17-16-14-17-16-14-----------------------------|
E|-----------------12/-7/-----------------------------0--0-0-0--3--3-3-3-3-3--5---|

G|--------------------------------------------------------14h16p14h16-----------------------|
D|--------------------------------------------------14h16-----------------------------------|
A|-2/9-9-9-10-9-10-9------------------------2/14-14-----------------------------------------|
E|-------------------12\-0--0-0-0-3-5-5-5-5---------------------------0--0-0-3--3-3-5-3-5---|

G|------------------------------------------|
D|---------/16-16--16-16--16----------------|
A|-2/14-14----------------------------------|
E|---------------------------0--0-0-3-3-3---|

Chorus

G|------------------7-------------------------------------------|
D|---------------------------------------------------9-9-7-7----|
A|-------5-7----5/7--------------------------5-7h9p7------------|
E|-0-0/7----0-0-------7-7-7-7-5-5-5-5--0-0/7--------7-7-7-5-5---|

G|------------------------------------------------|
D|-----------------9-9-7-7------------0-----------|
A|---------5-7h9p7----------------5-7---2-2-2-2-0-| 
E|---0-0/7--------7-7-7-5-5--0-0/7----------------|

G|------------------7-------------------------------------------|
D|---------------------------------------------------9-9-7-7----|
A|-------5-7----5/7--------------------------5-7h9p7------------|
E|-0-0/7----0-0-------7-7-7-7-5-5-5-5--0-0/7--------7-7-7-5-5---|

G|------------------------------------------------|
D|-----------------9-9-7-7------------0-----------|
A|---------5-7h9p7----------------5-7---2-2-2-2-0-| 
E|---0-0/7--------7-7-7-5-5--0-0/7----------------|

G|-------------|
D|-------------|
A|-2-2-2-2-0---| X3
E|-------------|

| () ghost note
| L  let ring
| /  slide up
| \  slide down
| h  hammer-on
| p  pull-off
| ~  vibrato
| +  harmonic
| x  Mute note
===============================================================================
Suggest correction
Creating personal tab
Creating personal tab
You can edit any tab online and save it as your Personal.

You can edit, replace or remove any tab part or add personal notes – all changes will be seen only by you.

Personal tabs can be accessed anytime from any device, even offline.
Learn more »
Give kudos to tab author, rate the tab!
1 2 3 4 5
comments
print report bad tab
guest
You may want to rate the tab now too:
select rating
Wanna post a correction for this tab? Suggest correction