Oops, an error
Loading. Please wait.

Fairweather Friends tab

version 1
version 1

Whole song

Interactive

11,171 views 1 this week
7 commentsread comments
1 2 3 4 5
x 7
add to favorites
×
Save as Personal and add changes to this tab that will be seen only by you. Learn more ›
×
You can save this tab as Personal to edit and correct it or add notes. All changes will be seen only by you. Learn more »
launch autoscroll
font size
0
reset
how to read this tab
guitar tuner
edit
Autoscroll
slow
fast
+/-
esc
set tempo
stop
Author
Difficulty
-------------------------------------------------------------------------------
                  Fairweather Friends – Queens of the Stone Age
-------------------------------------------------------------------------------
Tabbed by:owen556
E-mail:ogriff56@gmail.com

Tuning: Standard  I just improvise solos in B minor using lots of bends and blues notes, 
it pretty simple to figure out.

This is my first tab so I was pretty lazy with it :p

e|---------------------------------------------------------------------------|
B|---------------------------------------------------------------------------|
G|---------------------------------------------------------------------------|
D|------------------------7-------------repeat-------------------------------|
A|---99999999-7---7-9-10----10-9-7-------------------------------------------|
E|---77777777-5--------------------------------------------------------------|

e|---------------------------------------------------------------------------|
B|---------------------------------------------------------------------------|
G|-------0--------0----------------------------------------------------------|
D|-----2--4----2----4--------------------------------------------------------|
A|---3--3----3---2-----------------------------------------------------------|
E|---------------------------------------------------------------------------|

Verse


e|--2--2-------------------------------------------------------------------------|
B|--2--2-------------------------------------------------------------------------|
G|--4--4-------------------------------------------------------------------------|
D|--4--4---2--5-7----------------------------------------------------------------|
A|--2--2---2--5-7---repeat a few times end on...---------------------------------|
E|---------0--3-5----------------------------------------------------------------|

It seems...every single time I was bleeding
e|---------------------------------------------------------------------------|
B|---------------------------------------------------------------------------|
G|---------------------------------------------------------------------------|
D|---------------------------------------------------------------------------|
A|----555555-5-22------55555-7-9---------------------------------------------|
E|----333333-2-00------33333-5-7---------------------------------------------|
Solo....

So what's it gonna take....to get ya back in bed?
e|---------------------------------------------------------------------------|
B|---888888-10-12------------------------------------------------------------|
G|---777777-9--11------------------------------------------------------------|
D|---555555-7--9-------------------------------------------------------------|
A|---------------------------------------------------------------------------|
E|---------------------------------------------------------------------------|
FAIRWEATHER FRIENDS!
e|---------------------------------------------------------------------------|
B|---------------------------------------------------------------------------|
G|---------------------------------------------------------------------------|
D|------------------7--------------------------------------------------------|
A|---9999-7----9-10---10-9-7-------------------------------------------------|
E|---7777 5------------------------------------------------------------------|

This is most of the riffs, solos can be improvised or figured out, I figured this out on 
acoustic and its fucking awesome to jam too.  I figured out the basics of almost every 
song, so I might post more.

FAIR- aw I don't give a shit about them anyhow.
************************************

| /   slide up
| \   slide down
| h   hammer-on
| p   pull-off
| ~   vibrato
| +   harmonic
| x   Mute note
| b   Bend
| pb  Pre-bend
| br  Bend release
| pbr Pre-bend release
| brb Bend release bend

************************************

            
            
Suggest correction
Creating personal tab
Creating personal tab
You can edit any tab online and save it as your Personal.

You can edit, replace or remove any tab part or add personal notes – all changes will be seen only by you.

Personal tabs can be accessed anytime from any device, even offline.
Learn more »
comments
print report bad tab
7 comments total. Showing first comments.
0 reply
skutergirl 10 Jun 07, 2013 01:25 AM

Appreciate it if someone would include the solo tab too. Please.. (T_T)

0 reply
zeddy07 10 Jun 17, 2013 05:25 AM

Please update it with solos)))

0 reply
sheks 72 Jun 19, 2013 09:47 AM

This is a great effort but there are a few mistakes and quite a few bits just missing (as well as solo). That said much better than I could do but 4* for me incomplete.

small correction for intro --*
--*
G|-------0--------4--------------------------*
D|-----2--4----2----4----7----------7-9-7-9--*
A|---3--3----3---2-------7---7-9-10-----------
E|-----------------------5--------------------

The *s are for the chord/notes i can't work out last chord of the intro

guest
You may want to rate the tab now too:
select rating
Wanna post a correction for this tab? Suggest correction