Oops, an error
Loading. Please wait.

Feel Good Hit Of The Summer Tab

version 3
version 3

Whole song

Interactive

50,951 views 36 this week
4 commentsread comments
1 2 3 4 5
x 23
add to favorites
launch autoscroll
font size
0
reset
how to read this tab
guitar tuner
Autoscroll
slow
fast
+/-
esc
set tempo
stop
Help us to improve Ultimate-Guitar.com Take our survey!
×
Author
Difficulty
Ok folks this is fairly simple!

[Intro]
   A#5
e-------------------------------------|
B-------------------------------------|
G-------------------------------------|
D--8-8-8--8-8--8--8-8--8-8-8----------|
A--8-8-8--8-8--8--8-8--8-8-8----------|
E--6-6-6--6-6--6--6-6--6-6-6----------|

repeat that for a long time for the 'Nicotine, Valium...' bit.

Then for the 'Co-co-co-co-co-co-caine!!!!!!!!!' bit just do
  A#5    C#5  A#5
e--------------------------------------------------------------|
B--------------------------------------------------------------| h=hammer on
G--------------------------------------------------------------|
D-8-8-8-8-8-8-8-11---8-8-8-8-8-8-8-8-8-8-------8-8-8-8-8-8-----|
A-8-8-8-8-8-8-8-11---8-8-8-8-8-8-8-8-8-8-------8-8-8-8-8-8-----|
E-6-6-6-6-6-6-6--9---6-6-6-6-6-6-6-6-6h7666666-----------------|
Thats just about it, just go slightly mental near the end and you got it!



************************************

| h  Hammer-on

************************************
Suggest correction
comments
print report bad tab
4 comments total. Showing first comments.
0 reply
axe_man 10 Jan 03, 2007 06:45 AM

osuds rite gd job cud sum1 plz tab the solo XD

0 reply
stevenlogan 20 Mar 23, 2007 09:57 AM

hehe.. just go **** in the solo. although, i would like to know what scale the solo is in.

+5 reply
Exo M7 672 May 31, 2008 05:43 PM

I'm gonna go out on a limb and say A#

guest
You may want to rate the tab now too:
select rating
Wanna post a correction for this tab? Suggest correction