Oops, an error
Loading. Please wait.

Feet Dont Fail Me intro tab

version 1
version 1

Intro

  • Should be played in a sort of shuffle rhythm.

Interactive

5,953 views 669 this week
1 commentread comment
1 2 3 4 5
x 7
add to favorites
×
Save as Personal and add changes to this tab that will be seen only by you. Learn more ›
×
You can save this tab as Personal to edit and correct it or add notes. All changes will be seen only by you. Learn more »
launch autoscroll
font size
0
reset
how to read this tab
guitar tuner
edit
Autoscroll
slow
fast
+/-
esc
set tempo
stop
About this tab version
Should be played in a sort of shuffle rhythm. Was this info helpful? Yes No
E|---------------------|---------------------------|---------------------|---------------------------|
B|---------------------|---------------------------|---------------------|---------------------------|
G|---------------------|---------------------------|---------------------|---------------------------|
D|------2---------2----|------2------------0-h-2---|------2---------2----|------2----2-p-0-----------|
A|------2---------2----|------2----0-h-2-----------|------2---------2----|------2------------2-p-0---|
E|-0---------0---------|-0-------------------------|-0---------0---------|-0-------------------------|


E|---------------------|---------------------------|---------------------|---------------------------|
B|---------------------|---------------------------|---------------------|---------------------------|
G|---------------------|---------------------------|---------------------|---------------------------|
D|------2---------2----|------2------------0-h-2---|------2---------2----|------2----2-p-0-----------|
A|------2---------2----|------2----0-h-2-----------|------2---------2----|------2------------2-p-0---|
E|-0---------0---------|-0-------------------------|-0---------0---------|-0-------------------------|


E|---------------------|---------------------------|---------------------|---------------------------|
B|---------------------|---------------------------|---------------------|---------------------------|
G|---------------------|---------------------------|---------------------|---------------------------|
D|------2---------2----|------2------------0-h-2---|------2---------2----|------2----2-p-0-----------|
A|------2---------2----|------2----0-h-2-----------|------2---------2----|------2------------2-p-0---|
E|-0---------0---------|-0-------------------------|-0---------0---------|-0-------------------------|


E|---------------------|---------------------------|---------------------|------------------------------|
B|---------------------|---------------------------|---------------------|------------------------------|
G|---------------------|---------------------------|---------------------|------------------------------|
D|------2---------2----|------2------------0-h-2---|------2---------2----|-2-p-0------------------------|
A|------2---------2----|------2----0-h-2-----------|------2---------2----|---------2-p-0-------0--------|
E|-0---------0---------|-0-------------------------|-0---------0---------|-----------------3--------3b--|


E|---------------------|---------------------|---------------------|
B|---------------------|---------------------|---------------------|
G|---------------------|---------------------|---------------------|
D|---------------------|---------------------|------2---------2----|
A|-7----7----5-/--7----|-5----5----5-/--7----|------2---------2----|
E|-5----5--------------|-3----3--------------|-0---------0---------| etc.

***********************************

| h   Hammer on
| p   Pull off
| /   Slide-up
| b   Bend

***********************************

            
            
Suggest correction
Creating personal tab
Creating personal tab
You can edit any tab online and save it as your Personal.

You can edit, replace or remove any tab part or add personal notes – all changes will be seen only by you.

Personal tabs can be accessed anytime from any device, even offline.
Learn more »
comments
print report bad tab
1 comment total.
0 reply
latyka 10 Aug 21, 2017 05:35 PM, edited at 09:36 pm

Im pretty sure if you listen to it more precisely it sounds more like :E|----------------------|B|----------------------|G|----------------------|D|-----9-------9--------|A|-----7-------7--------|E|-0-------0------------| With a good distortion obv.

guest
You may want to rate the tab now too:
select rating
Wanna post a correction for this tab? Suggest correction