Oops, an error
Loading. Please wait.

Go With The Flow Bass

version 2
version 2

Whole song

  • Chorus is corrected from other tabs in standard tu... Show more
  • Extra basslines. If you want to make the bass in this song more outstanding.
53,793 views 72 this week
9 commentsread comments
1 2 3 4 5
x 43
add to favorites
launch autoscroll
font size
0
reset
guitar tuner
backing track
0:00
0:00
×
Best way to learn
"Go With The Flow"
Autoscroll
slow
fast
+/-
esc
set tempo
stop
[Intro]
G|--------------------------------------------------|
D|--------------------------------------------------|
A|-----------------33333---00000--------------------|
E|-0000000000000000----------------0000000000000000-|

G|----------------------------------|
D|----------------------------------|
A|-33333---00000--/7777777777777777-|
E|----------------------------------|

[Verse]
G|-----------------------------------|
D|-----------------------------------|
A|-33333---00000---------------------|
E|-----------------0000000000000000--| x3

G|----------------------------------|
D|----------------------------------|
A|-33333---00000--/777--5/7-7777777-|
E|--------------------57------------|

G|-----------------------------------|
D|-----------------------------------|
A|-33333---00000---------------------|
E|-----------------0000000000000000--| x2

[Chorus]
G|----------------------------------|
D|----------------------------------|
A|-33--3---55--5----777777777777777-|
E|---00------00---------------------|
sometimes
G----------------------------------|
D----------------------------------|
A-33--3---55-355---777777777777777-|
E---00------0---00-----------------|

[Verse 2]
G|----------------------------------|
D|----------------------------------|
A|-33333---00000--------------------|
E|-----------------0000000000000000-|

G|----------------------------------|
D|----------------------------------|
A|-33333---00000--/77777777--57-777-|
E|-------------------------57-------|

G|----------------------------------|
D|---------------------5-575--------|
A|-33333---00000---7777-7---757--57-|
E|-----------------------------05---|

G|----------------------------------|
D|----------------------------------|
A|-33333---00000--/7777777777777777-|
E|----------------------------------|

G|-----------------------------------|
D|-----------------------------------|
A|-33333---00000---------------------|
E|-----------------0000000000000000--| x2

G|----------------------------------|
D|----------------------------------|
A|-33333---00000----------577777777-|
E|-----------------0000007----------|

G|----------------------------------|
D|----------------------------------|
A|-33333---00000--------------------|
E|-----------------0000000000000000-|

[Outro]
G|---------------------------------|
D|---------------------------------|
A|-33333333555555557777777777777777
E|---------------------------------

G|----|
D|----|
A|-7\-|
E|-7\-|


************************************

| /  Slide up
| \  Slide down

************************************
Suggest correction
comments
print report bad tab
9 comments total. Showing first comments.
0 reply
blood_droplet 10 Jan 19, 2004 07:00 PM

nice tabs dude

-1 reply
stinkfinger 10 Jan 19, 2004 07:00 PM

Cool tab. Good to finally find one with all the fills!

I'm not saying I'M right, but I came with a slightly different version of the second verse fill that you've got as:

G---------------------------------
D---------------------5-575-------
A-33333---00000---7777-7---757--57
E-----------------------------05--

Mine goes:

G----------------------------------
D---------------------6-676------02
A-33333---00000---7777-7---757-02--
E----------------------------------

I hope I wrote that right! See what you think. - Thanks

0 reply
eddienolan89 75 Apr 29, 2007 12:36 PM

perfect tab,by any chance could u do songs for the dead song?

guest
You may want to rate the tab now too:
select rating
Wanna post a correction for this tab? Suggest correction