Oops, an error
Loading. Please wait.
We have an official Go With The Flow tab made by UG professional guitarists. Check out the tab »
×

Go With The Flow bass

version 4
version 4

Whole song

  • Chorus is corrected from other tabs in standard tu... Show more
  • Extra basslines. If you want to make the bass in this song more outstanding.
4,387 views 1 this week
no commentswrite comment
1 2 3 4 5
x 3
add to favorites
×
Save as Personal and add changes to this tab that will be seen only by you. Learn more ›
×
You can save this tab as Personal to edit and correct it or add notes. All changes will be seen only by you. Learn more »
launch autoscroll
font size
0
reset
guitar tuner
backing track
0:00
0:00
edit
Autoscroll
slow
fast
+/-
esc
set tempo
stop
Artist: Queens of the Stone Age
Song: Go with the Flow
Album: Songs for the Deaf
Bassist: Nick Oliveri
Tuning: C
Tabbed By: Eamon

Note: Throughout the tab, those are 11s, 12s, and 14s, not 1-1s, 1-2s, and 1-4s.

Intro:
D#:|-------------------------------------|
A#:|-------------------------------------|
F :|-------------------77777777-44444444-|
C :|-44444444-44444444-------------------| x2

D#:|-------------------|
A#:|-------------------|
F :|-/1111111111111111-|
C :|-------------------|

Verse:
D#:|-------------------------------------|
A#:|-------------------------------------|
F :|-77777777-44444444-------------------|
C :|-------------------44444444-44444444-| x3

D#:|-------------------------------------------------------|
A#:|-------------------------------------------------------|
F :|-77777777-44444444/1111111111111111------9/11-11-11-11-|
C :|------------------------------------9h11---------------|

D#:|-------------------------------------|
A#:|-------------------------------------|
F :|-77777777-44444444-------------------|
C :|-------------------44444444-44444444-| x2

Chorus:
D#:|-----------------------------------------------|
A#:|-1414--------1111----1111----------------------|
F :|-----1414--------1111----11\-------------------|
C :|---------12\-----------------44444444-44444444-| x4

Verse:
D#:|-------------------------------------|
A#:|-------------------------------------|
F :|-77777777-44444444-------------------|
C :|-------------------44444444-44444444-|

D#:|-------------------------------------------------------|
A#:|-------------------------------------------------------|
F :|-77777777-44444444/1111111111111111------9/11-11-11-11-|
C :|------------------------------------9h11---------------|

D#:|-------------------------------------------------|
A#:|----------------------------9--9119--------------|
F :|-77777777-44444444/11111111--11----11911----9/11-|
C :|----------------------------------------9h11-----|

D#:|-------------------------------------|
A#:|-------------------------------------|
F :|-77777777-44444444-------------------|
C :|-------------------44444444-44444444-|

D#:|------------------------------------------------------|
A#:|------------------------------------------------------|
F :|-77777777-44444444/1111111111111111-1111111111111111--|
C :|------------------------------------------------------|

D#:|-------------------------------------|
A#:|-------------------------------------|
F :|-77777777-44444444-------------------|
C :|-------------------44444444-44444444-|

D#:|----------------------------------------------|
A#:|----------------------------------------------|
F :|-77777777-44444444----------/1111111111111111-|
C :|-------------------44444444-------------------|

D#:|-------------------------------------|
A#:|-------------------------------------|
F :|-77777777-44444444-------------------|
C :|-------------------44444444-44444444-|

Chorus:
D#:|-----------------------------------------------|
A#:|-1414--------1111----1111----------------------|
F :|-----1414--------1111----11\-------------------|
C :|---------12\-----------------44444444-44444444-| x4

Outro:
D#:|-----------------------------------------------------|
A#:|-----------------------------------------------------|
F :|-77777777-99999999-1111111111111111-1111111111111111-|
C :|-----------------------------------------------------| x5

D#:|--------------------------------------------------|
A#:|---------------------------------------/18-18-18\-|
F :|-77777777-99999999-1111111111111111-11------------|
C :|--------------------------------------------------|

Tablature Legend
----------------
/ = Slide up
\ = Slide down
h = Hammer-on
Suggest correction
Creating personal tab
Creating personal tab
You can edit any tab online and save it as your Personal.

You can edit, replace or remove any tab part or add personal notes – all changes will be seen only by you.

Personal tabs can be accessed anytime from any device, even offline.
Learn more »
Give kudos to tab author, rate the tab!
1 2 3 4 5
comments
print report bad tab
guest
You may want to rate the tab now too:
select rating
Wanna post a correction for this tab? Suggest correction